Cifra Club

Easy

Faith No More

Tab de baixo: Principal
Introdução ( só piano )

Primeira parte

Know it sounds funny...

Parte 01 de 02

G|----------------------------------------------|
D|-------------------------------6\-------------|
A|-----------------3--6------6-6--------3-x-6-8-|
E|-10\--x-10\--4-4------6--6--------4-4---------|

Parte 02 de 02

G|----------------------------------------------|
D|---------------------------------------6\-----|
A|------6-6-6-6-6----------3-6------6-6---------|
E|-6—6------------4--4/--4-----6--6-------------|

G|----------------------10-8--------------------|
D|---------------------------10-8---------------|
A|-----3-x-6-8---6-6-6------------10-8----------|
E|-4-4---------6--------------------------------|

Refrão 

That's why I'm easy...

Parte 01 de 02

G|----------------------------------------------|
D|-----------------------6\---------------------|
A|------3-0-6-8------6-6---------3-0-6-8--------|
E|-4--4---------6--6--------4--4---------6------|

Parte 02 de 02

G|----------------------------------------------|
D|--------6\------------------------------------|
A|---6-6-----------3-0-6-8------6-6--9-8---6-6--|
E|-6----------4--4---------6--6----------8------|

G|----------------------------------------------|
D|----------------------------------------------|
A|----------------------------------------------|
E|-4--4/----------------------------------------|

Segunda parte

I wanna be high, so high

Parte 01 de 02

G|----------------------------------------------|
D|----------------------------------------------|
A|------------6--4-6-4-6--8-----------6--4-6-8--|
E|-2-0-2-2-1----------------2-0-2-2-1-----------|

Parte 02 de 02

G|----------------------------------------------|
D|----------------------------------------------|
A|-6-8-----------6--6-6-6-6-6--2-----x-4h6-4----|
E|-----2-0-2-2-1-----------------0-2------------|

G|----------------------------------------------|
D|----------------------------------------------|
A|-4/12--14\------------------------------------|
E|----------------------------------------------|

Solo de guitarra

Parte 01 de 03

G|----------------------------------------------|
D|--------------------6\---------------------8--|
A|------3-3-------6-6-----------3-3-0-6-8-------|
E|-4--4-----0-6-6--------0-4--4-----------6-----|

Parte 02 de 03

G|----------------------------------------------|
D|--------------------------------------6\------|
A|---6-6-6-6-6----------3-3/--------6-6---------|
E|-6-----------4--4/--4------0-6--6-------------|

Parte 03 de 03

G|---------------------10-8---------------------|
D|--------------------------10-8----------------|
A|------3-3-0-6-8---6------------10-8-----------|
E|-4--4-----------6-----------------------------|

Segundo refrão Final 

That's why I'm easy...

Parte 01 de 02

G|----------------------------------------------|
D|-----------------------6\---------------------|
A|------3-0-6-8------6-6---------3-0-6-8--------|
E|-4--4---------6--6--------4--4---------6------|

Parte 02 de 02

G|----------------------------------------------|
D|--------6\------------------------------------|
A|---6-6-----------3-0-6-8------6-6--9-8---6-6--|
E|-6----------4--4---------6--6----------8------|

G|----------------------------------------------|
D|-------6--------------------------------------|
A|---3-6----------------------------------------|
E|-4--------------------------------------------|
00:00 / 00:00
Outros vídeos desta música
Repetir
Outros vídeos desta música
Composição de Lionel Richie
Colaboração e revisão:
8.627 exibições

0 comentários

Ver todos os comentários

Entre para oCifra Club PRO

Tenha acesso a benefícios exclusivos no App e no Site

  • Chega de anúncios

  • Prioridade de compra em lançamentos

  • Mais recursos no app do Afinador

  • Atendimento Prioritário

  • Descontos nos produtos Cifra Club

  • Ajude a produzir mais conteúdo

00:00 / 00:00
Capítulos
  • Tocando a música
  • Dicas Iniciais / Equipamentos
  • Primeira Parte - Parte 1 de 2
  • Primeira Parte - Parte 2 de 2
  • Refrão - Parte 1 de 2
  • Refrão - Parte 2 de 2
  • Segunda Parte - Parte 1 de 2
  • Segunda Parte - Parte 2 de 2
  • Solo de Guitarra - Parte 1 de 3
  • Solo de Guitarra - Parte 2 de 3
  • Solo de Guitarra - Parte 3 de 3
  • Segundo Refrão - Parte 1 de 2
  • Segundo Refrão - Parte 2 de 2
  • Encerrameto
  • Ficha Técnica / Erros de Gravação

Cifra Club Pro

Aproveite o Cifra Club com benefícios exclusivos e sem anúncios
Cifra Club Pro
Aproveite o Cifra Club com benefícios exclusivos e sem anúncios
OK