Evidence

Faith No More

Composição de: Bill Gould / Mike Bordin / Mike Patton / Trey Spruance
tom: D
h: Hammer-on
/: Slide
b: Bend

(intro)

(intro baixo - 5 cordas)

G |--------------------------------------------------
D |--------------------------------------------------
A |--------------------------------------------------
E |--------------------------------------------------
B |-3-5--0-0--3--5-3-5--0-0--3--5-3-5--0-0--3--5-3-5-

G |--------------------------------------------------
D |--------------------------------------------------
A |--------------------------------------------------
E |--------------------------------------------------
B |-0-0---5-3--2-1--0-0-3--3h5-0-0-3-----------------

(verso 4x)

E |--8----8----8----8----7----7----7----7-------
B |--8----8----8----8----8----8----8----8-------
G |---------------------------------------------
D |---------------------------------------------
A |---------------------------------------------
E |---------------------------------------------

If you want open the hole
Just put your head down and go
Step beside the piece of circumstance
Got to wash away the taste of evidence

Wash it away

(solo 1)

(teclado - arranjo guitarra)

E |----3-5---5--5---3-5-------3-5--7-7-7-5--3---3-
B |--5-----5--5---5---------5-----------------5---
G |-----------------------------------------------
D |-----------------------------------------------
A |-----------------------------------------------
E |-----------------------------------------------

E |-5-3---------3-5---5--5---3-5---5-3------------
B |-----------5------5--5--5-----------5--3-3/2-3-
G |-----------------------------------------------
D |-----------------------------------------------
A |-----------------------------------------------
D |-----------------------------------------------

E |-------------------3-5---5--5---3-5---------3-5-7-
B |-3/2-3/5/3-------5------5--5--5-----------5-------
G |--------------------------------------------------
D |--------------------------------------------------
A |--------------------------------------------------
E |--------------------------------------------------

E |-7-7-5--3---3-5-3----------3-5---5--5---3-5-
B |----------5--------------5-----5--5---5-----
G |--------------------------------------------
D |--------------------------------------------
A |--------------------------------------------
E |--------------------------------------------

E |-5-3---7-7-7-7-7-7-7-7-7-7--
B |-----5----------------------
G |----------------------------
D |----------------------------
A |----------------------------
E |----------------------------

(Evidence...got a taste of evidence)

(refrão)

E |-5--5--5--5-----------------------5--5--5--5-
B |-5--5--5--5--/12-12-12-12-12--10--5--5--5--5-
G |-------------/12-12-12-12-12--10-------------
D |-------------/12-12-12-12-12--10-------------
A |---------------------------------------------
E |---------------------------------------------

E |---------------------------------------------5-
B |-10/12-12-12-10------------------------------5-
G |-10/12-12-12-10-----------------------9-9/-----
D |-10/12-12-12-10--------5-7----5-7-----9-9/-----
A |---------------------7------7------------------
E |-----------------------------------------------

E |-5-5-5-5-5--
B |-5-5-5-5-5--
G |------------
D |------------
A |------------
D |------------

I didn't feel a thing
It didn't mean a thing
Look in the eye and testify;
I didn't feel a thing

(interlúdio)

E |---------------------------------------------------
B |----10--------12---------10------8-------10--------
G |-/9----9-9/11----11-11/9------/7---7-7/9----9-9/11-
D |---------------------------------------------------
A |---------------------------------------------------
E |---------------------------------------------------

E |--------------------
B |-12-------------15--
G |----11-11/14--------
D |--------------------
A |--------------------
E |--------------------

(verso 2x)

E |--8---8---8---8---7---7---7---7-------
B |--8---8---8---8---8---8---8---8-------
G |--------------------------------------
D |--------------------------------------
A |--------------------------------------
E |--------------------------------------

Anything you say, we know you're guilty
Hands above your head and you won't even feel me

(solo 2)
E |-----------------------------------------------
B |-----------------------------------------------
G |-----------------5h7-7-7-5-7-7b------------5-7-
D |------------5h7------------------------5h7-----
A |---7p5-5h7-------------------------------------
E |-----------------------------------------------

E |----------------------------------------------
B |---------------------------10b--------10-10p8-
G |-5h7--5-5h7-4--2h4-------------7b-5-----------
D |----------------------------------------------
A |----------------------------------------------
E |----------------------------------------------

E |---------------------------------------------
B |-8-8h10-10-10p8----------------------------5-
G |----------------7b-5-4-----------------5-7---
D |---------------------------------5-5h7-------
A |---------------------------------------------
E |---------------------------------------------

E |--------------------6h86h86h86h8-------------
B |--------------------------------5h75h75h75h7-
G |-7b-7b-7b-5----------------------------------
D |---------------------------------------------
A |---------------------------------------------
E |---------------------------------------------

E |--------------------------------
B |--------------------------------
G |-5h75h75h75h7-------------------
D |-------------7------------------
A |--------------------------------
E |--------------------------------

(depois do solo vem estes riffs antes do refrão)
E |-----------------------------------------------
B |-10/13-13--------------------------9-10--------
G |------------14-13------------------9-9---------
D |--------------------13-------------------------
A |-----------------------------------------------
E |-----------------------------------------------

E |--------------------------------5/7-5------
B |-------------------------------------------
G |----------5-----------------4-----------7b-
D |--------7---7-5h7---------5----------------
A |-5-5h7--------------5-5h7------------------
D |-------------------------------------------

(Evidence...got a taste of evidence)

(refrão)
E |-5--5--5--5-----------------------5--5--5--5-
B |-5--5--5--5--/12-12-12-12-12--10--5--5--5--5-
G |-------------/12-12-12-12-12--10-------------
D |-------------/12-12-12-12-12--10-------------
A |---------------------------------------------
E |---------------------------------------------

E |---------------------------------------------5-
B |-10/12-12-12-10------------------------------5-
G |-10/12-12-12-10-----------------------9-9/-----
D |-10/12-12-12-10--------5-7----5-7-----9-9/-----
A |--------------------7------7-------------------
E |-----------------------------------------------

E |-5-5-5-5-5--
B |-5-5-5-5-5--
G |------------
D |------------
A |------------
D |------------

I didn't feel a thing
It didn't mean a thing
Look in the eye and testify;
I didn't feel a thing
I didn't feel a thing
It didn't mean a thing
Look in the eye and testify;
I didn't feel a thing

You won't feel me
Página 1 / 1

Letras e título
Acordes e artista

resetar configurações
OK