Cifra Club

Ricochet

Faith No More

Tab de baixo: Principal
Intro:

G|--------|    G|-----11-11-11-12-12-12-14-14-12-11--|---14-14-14-15-15-15-17-17-15-14--|
D|--------|    D|------------------------------------|----------------------------------|
A|--5-5---|    A|------------------------------------|----------------------------------|
E|--------|8x  E|------------------------------------|----------------------------------|

G|---------------|---------------|
D|---------------|---------------|
A|---------------|---------------|
E|-3-3-3-3-3-3-3-|-1-1-1-1-1-1-1-|

G|--------|    G|-----11-11-11-12-12-12-14-14-12-11--|---14-14-14-15-15-15-17-17-15-14--|
D|--------|    D|------------------------------------|----------------------------------|
A|--5-5---|    A|------------------------------------|----------------------------------|
E|--------|5x  E|------------------------------------|----------------------------------|

G|---------------|---------------|
D|---------------|---------------|
A|---------------|---------------|
E|-3-3-3-3-3-3-3-|-1-1-1-1-1-1-1-|

Verso 1:

G|---------------|---------------|---------------|---------------|
D|---------------|---------------|---------------|---------------|
A|---------------|---------------|---------------|---------------|
E|-5-5-5-5-5-5-5-|-3-3-3-3-3-3-3-|-3-3-3-3-3-3-3-|-1-1-1-1-1-1-1-|

G|-----------------|-----------------|_----------------|---------------|---------------|----------|
D|-----------------|-----------------|_----------------|---------------|---------------|----------|
A|-----------------|-----------------|-----------------|---------------|---------------|-10-------|
E|-5-5-5-5-5-5-5-5-|-3-3-3-3-3-3-3-3-|-3-3-3-3-3-3-3-3-|-3-3-3-3-3-3-3-|-3-3-3-3-3-3-3-|----------|

Ponte:

G|----------|---------|---------------|----------|-----------|-------------|---------------|
D|----------|---------|---------------|----------|-----------|-------------|---------------|
A|10-8------|-7-------|-0-0-0-0-0-0-0-|-10-------|-10-8------|-0-0-0-0-0-0-|-0-0-0-0-0-0-0-|
E|----------|---------|---------------|----------|-----------|-------------|---------------|

Verso 2:

G|---------------|---------------|---------------|---------------|
D|---------------|---------------|---------------|---------------|
A|---------------|---------------|---------------|---------------|
E|-3-3-3-3-3-3-3-|-1-1-1-1-1-1-1-|-5-5-5-5-5-5-5-|-5-5-5-5-5-5-5-|

G|---------------|---------------|---------------|---------------|
D|---------------|---------------|---------------|---------------|
A|---------------|---------------|---------------|---------------|
E|-3-3-3-3-3-3-3-|-1-1-1-1-1-1-1-|-5-5-5-5-5-5-5-|-3-3-3-3-3-3-3-|

(Repete)

(Intro) 
(Verso 1)
(Ponte)

Final:

G|---------------|---------------|---------------|---------------|
D|---------------|---------------|---------------|---------------|
A|---------------|---------------|---------------|---------------|
E|-3-3-3-3-3-3-3-|-1-1-1-1-1-1-1-|-5-5-5-5-5-5-5-|-5-5-5-5-5-5-5-| 2x

G|---------------|---------------|---------------|---------------|
D|---------------|---------------|---------------|---------------|
A|---------------|---------------|---------------|---------------|
E|-3-3-3-3-3-3-3-|-1-1-1-1-1-1-1-|-5-5-5-5-5-5-5-|-3-3-3-3-3-3-3-| 4x

G|--------|    
D|--------|    
A|--5-5---|    
E|--------|
00:00 / 00:00
Outros vídeos desta música
Repetir
Outros vídeos desta música
Compositor não encontrado.
Colaboração e revisão:
  • thebassmanbr
302 exibições

0 comentários

Ver todos os comentários

Conseguiu tocar?

0 Tocaram 0 Ainda não

Grave um vídeo tocando Ricochet e nos envie!

Entre para oCifra Club PRO

Tenha acesso a benefícios exclusivos no App e no Site

  • Chega de anúncios

  • Prioridade de compra em lançamentos

  • Mais recursos no app do Afinador

  • Atendimento Prioritário

  • Descontos nos produtos Cifra Club

  • Ajude a produzir mais conteúdo

00:00 / 00:00

Cifra Club Pro

Aproveite o Cifra Club com benefícios exclusivos e sem anúncios
Cifra Club Pro
Aproveite o Cifra Club com benefícios exclusivos e sem anúncios
OK