Cifra Club

Aprenda

Conto de Farsas

Fake Number

Cifra: Principal (violão e guitarra)
Tom: F#
e|----------------------------------------------------------
B|-9--7--7--7--7--7--10-9--7--9--9--9----------------------
G|-9--9--9--9--9--9--9--9--9--9--9--9-----------------------
D|----------------------------------------------------------  7x
A|----------------------------------------------------------
E|----------------------------------------------------------
                                                  
C#5                     A5
E quando a historia começou                              e|---12-----| 8x Harm. Nat.
                  B5                                     B|------12--| 
Os personagens se encontraram                                 
F#5            G#5                 C#5
Ele a queria e ela sabe que arruinaria
          A5                      B5     F#5 G#5
Sua vida, caso fizesse a escolha errada
A5
|----------------------------------------------------------
|-0-4-5-0--4-5-0-4--5-0-4-5--0-4-5-0-----------------------
|----------------------------------------------------------  
|----------------------------------------------------------
|----------------------------------------------------------
|----------------------------------------------------------

B5
|----------------------------------------------------------
|-0-5-7-0--5-7-0-5--7-0-5-7--0-5-7-0-----------------------
|----------------------------------------------------------  
|----------------------------------------------------------
|----------------------------------------------------------
|----------------------------------------------------------

A5
|----------------------------------------------------------
|-0-4-5-0--4-5-0-4--5-0-4-5--0-4-5-0-----------------------
|----------------------------------------------------------  
|----------------------------------------------------------
|----------------------------------------------------------
|----------------------------------------------------------

- Dedilhado nessa parte -

Ela está presa em sua decisão
Não consegue escolher
Tem dois caminhos pra percorrer

- Dedilhado nessa parte -

Refrão
C#5           A5
Nesse conto de farsas
  B5           F#5
O final pode não ser
     G#5
Tão feliz assim
C#5         A5
Um caminho pra escolher
B5                F#5   G#5     
Ela sabe que pode se arrepender

|----------------------------------------------------------
|-5--7--9--7--9--10--9--9----------------------------------
|----------------------------------------------------------  2x
|----------------------------------------------------------
|----------------------------------------------------------
|----------------------------------------------------------

- Dedilhado nessa parte -

Em seus pensamentos tenta se econtrar
Faz juramentos, promete nunca mais amar
E passa os dias vendo filmes irreais
Esperando, que seus dias sejam iguais

- Dedilhado nessa parte -

A5
|----------------------------------------------------------
|-0-4-5-0--4-5-0-4--5-0-4-5--0-4-5-0-----------------------
|----------------------------------------------------------  
|----------------------------------------------------------
|----------------------------------------------------------
|----------------------------------------------------------

B5
|----------------------------------------------------------
|-0-5-7-0--5-7-0-5--7-0-5-7--0-5-7-0-----------------------
|----------------------------------------------------------  
|----------------------------------------------------------
|----------------------------------------------------------
|----------------------------------------------------------

A5
|----------------------------------------------------------
|-0-4-5-0--4-5-0-4--5-0-4-5--0-4-5-0-----------------------
|----------------------------------------------------------  
|----------------------------------------------------------
|----------------------------------------------------------
|----------------------------------------------------------

- Dedilhado nessa parte -

Ela está presa em sua decisão
Não consegue escolher
Tem dois caminhos pra percorrer

- Dedilhado nessa parte -

Refrão
C#5           A5
Nesse conto de farsas
  B5           F#5
O final pode não ser
     G#5
Tão feliz assim
C#5         A5
Um caminho pra escolher
B5                F#5   G#5     
Ela sabe que pode se arrepender (se arrepender)

|----------------------------------------------------------
|----------------------------------------------------------
|---------------------------------------------------------- 
|-6-4-6-7-6-4-6--------------------------------------------   3x
|----------------------------------------------------------
|----------------------------------------------------------

|----------------------------------------------------------
|----------------------------------------------------------
|---------------------6-5---------------------------------- 
|---------------6-4-6-----7-6------------------------------
|----------------------------------------------------------
|----------------------------------------------------------

|----------------------------------------------------------
|----------------------------------------------------------
|---------------------------------------------------------- 
|-6-4-6-7-6-4-6--------------------------------------------   3x
|----------------------------------------------------------
|----------------------------------------------------------

|----------------------------------------------------------
|----------------------------------------------------------
|---------------------6-5---------------------------------- 
|---------------6-4-6-----7-6------------------------------
|----------------------------------------------------------
|----------------------------------------------------------

*solo:
e|----------------------------------------------------------
B|----------------------------------------------------------
G|--6-8-9-8-9-11-9-11-13-14-11------------------------------
D|-----------------------------13-11------------------------
A|----------------------------------------------------------
E|----------------------------------------------------------

e|----------------------------------------------------------
B|----------------------------------------------------------
G|--6-8-9-8-9-11-9-11-13-14-11-----------6------------------
D|-----------------------------13--------6------------------  
A|---------------------------------------4------------------
E|----------------------------------------------------------                          

Refrão
C#5           A5
Nesse conto de farsas
  B5           F#5
O final pode não ser
     G#5
Tão feliz assim
C#5         A5
Um caminho pra escolher
B5                F#5   G#5     
Ela sabe que pode se arrepender 
C#5              A5
No Final Saberemos 
 B5                     F#5   G#5 
Se Eles Foram Felizes Pra Sempre (Pra Sempre)
Composição de Elektra
Colaboração e revisão:
  • Aylon Araujo
  • Rafael marinho
  • FCO Number
11.839 exibições
    • ½ Tom
    • A
    • Bb
    • B
    • C
    • Db
    • D
    • Eb
    • E
    • F
    • F#
    • G
    • Ab
  • Adicionar à lista

    0 comentários

    Mostrar mais comentários

    Conseguiu tocar?

    2 Tocaram 0 Ainda não

    Grave um vídeo tocando Conto de Farsas e mande pra gente!

    00:00 / 00:00
    outros vídeos desta música
    repetir qualidade Automático
    Outros vídeos desta música
    00:00 / 00:00
    Automático

    Cifra Club Pro

    Aproveite o Cifra Club com benefícios exclusivos e sem anúncios
    Cifra Club Pro
    Aproveite o Cifra Club com benefícios exclusivos e sem anúncios
    OK