Cifra Club

Primeira Lembrança

Fake Number

Cifra: Principal
exibições 36.499
Tom: E
Intro:
         C#m            B                    A
E|-----4-------|-----2-------|-----0-----------0-------|
B|-------5---5-|-------4---4-|-------2---2-------2---2-|
G|---------6---|---------4---|---------2-----------2---|
D|---6---------|---4---------|---2-----------2---------|
A|-4-----------|-2-----------|-0-----------0-----------|
E|-------------|-------------|-------------------------|


                    C#m B
A sua primeira lembrança
      A
E eu não me importo mais.
                    C#m
A sua primeira lembrança
B         A
Whooooa, whooooa.

Solo 1: B  C#m  E  B  C#m  A  B  C#m  E  B  C#m  A
E|----------------5/7---------------------------------5/7|-------|
B|-4h5p4---4h5p4------4h5p4---4h5p4-----4h5p4--4h5p4-----|-------|
G|-------6------------------6-------4---------6----------|-4-6-2-|
D|-------------------------------------------------------|-4-6-2-|
A|-------------------------------------------------------|-2-4-0-|
E|-------------------------------------------------------|-------|


       B      C#m      A
Aconteceu, mais uma vez
         B         C#m         A
Você achou que poderia aguentar.
      B       C#m         A
Mas a última vez, te deixou muitas marcas.
Solo 2:
E|-0-0-0-0-0-0-0-0-0-0-0-0-0-0-0-0-|
B|-5-5-5-5-5-5-5-5-5-5-5-5-5-5-5-5-|
G|---------------------------------|
D|---------------------------------|
A|---------------------------------|
E|---------------------------------|


B               C#m
Você pensou que não,
       A
Você não sentia mais nada.
B                 C#m
Você achou que me esqueceu.
         A
Mas nas noites mais escuras eu sou..

                    C#m B
A sua primeira lembrança
      A
E eu não me importo mais.
                    C#m
A sua primeira lembrança
B         A
Whooooa, whooooa.

solo 1 junto com a voz.

                    C#m B
A sua primeira lembrança
      A
E eu não me importo mais. (E eu não me importo mais)
C#m            B         A
E eu não me importo mais.

(solo 2)

            B C#m         A
Você pode fugir, se esconder.
              B           C#m              A
Você pode partir, mas não pode escapar das memórias.

B               C#m
Você pensou que não,
A
Você não sentia mais nada.

Você achou que me esqueceu.
                                A
Mas nas noites mais escuras eu sou..

                    C#m B
A sua primeira lembrança
      A
E eu não me importo mais.
                    C#m
A sua primeira lembrança
B         A
Whooooa, whooooa.

(solo 1)

                    C#m B
A sua primeira lembrança
      A
E eu não me importo mais. (E eu não me importo mais)
C#m            B         A
E eu não me importo mais.

(solo 2)

A                  B
Seu coração ainda vai quebrar
C#m             B
Não gostaria de estar no seu lugar.
A              B
Tudo que vai um dia volta,
C#m               B                    A
E toda dor que causou você ainda sentirá.

(solo 2)

A sua primeira lembrança
      A
E eu não me importo mais.
                    C#m
A sua primeira lembrança
B         A
Whooooa, whooooa.

(solo 1)

                    C#m B
A sua primeira lembrança
      A
E eu não me importo mais. (E eu não me importo mais)
C#m            B         A
E eu não me importo mais.

(Solo 2)
Acordes para:
    Composição: ElektraColaboração e revisão:
    • Alberto Souza
    • Fernando Campedelli
    • Jéssica Schwertner

    0 comentários

      mostrar mais comentários

      Conseguiu tocar?

      22tocaram0ainda não

      Grave um vídeo tocando Primeira Lembrança e mande pra gente!

      00:00 / 00:00
      outros vídeos desta música
      repetirqualidadeautomática
      Outro vídeos desta música
        00:00 / 00:00
        automática
        OK