Cifra Club

Aprenda

Easy Livin

Fastway

Cifra: Principal (violão e guitarra)
tom: E
(intro Pt I)
E|---------------------------------------------------------------------------|
B|---------------------------------------------------------------------------|
G|---------------------------------------------------------------------------|
D|--/12--/12--/12--/12-------------------------------------------------------|
A|--/12--/12--/12--/12-------------------------------------------------------|
E|--/12--/12--/12--/12-------------------------------------------------------|

(intro Pt II)
E|-----------------------------------------------------------------------------|
B|-----------------------------------------------------------------------------|
G|-----------------------------------------------------------------------------|
D|--2-2-4-2-2-2-4-2-2-2-4-2-2-2-4-2-2-2-4-2-2-2-4-2-2-7-7-5--------------------|
A|--0-0-0-0-0-0-0-0-0-0-0-0-0-0-0-0-0-0-0-0-0-0-0-0-0-5-5-3--------------------|
E|-----------------------------------------------------------------------------|

(verse Pt I)
E|-----------------------------------------------------------------------------|
B|-----------------------------------------------------------------------------|
G|-----------------------------------------------------------------------------|
D|--2-2-4-2-2-2-4-2-2-2-4-2-2-2-4-2--7--5--2-2-4-2-2-2-4-2---------------------|
A|--0-0-0-0-0-0-0-0-0-0-0-0-0-0-0-0--5--3--0-0-0-0-0-0-0-0---------------------|
E|-----------------------------------------------------------------------------|

(verse Pt II)
E|---------------------------------------------------------------------------|
B|---------------------------------------------------------------------------|
G|--2-2-4-2-2-2-4-2-2-2-4-2-2-2-4-2-2-2-4-2-2-2-4-2-2-2-4-2-2-2-4-2----------|
D|--0-0-0-0-0-0-0-0-0-0-0-0-0-0-0-0-0-0-0-0-0-0-0-0-0-0-0-0-0-0-0-0----------|
A|---------------------------------------------------------------------------|
E|---------------------------------------------------------------------------|

(refrão)
E|-----------------------------------------------------------------------------|
B|-----------------------------------------------------------------------------|
G|-----------------------------------------------------------------------------|
D|-----------------------------------------------------------------------------|
A|--2---4---5------------------------------------------------------------------|
E|--0---2---3------------------------------------------------------------------|

(fill #1)
E|---------------------------------------------------------------------------|
B|---------------------------------------------------------------------------|
G|---------------------------------------------------------------------------|
D|---------------------------------------------------------------------------|
A|------0-1-2-3-4------------------------------------------------------------|
E|--2-3----------------------------------------------------------------------|

E|-----------------------------------------------------------------------------|
B|-----------------------------------------------------------------------------|
G|---------------13b14.5---------------------------13b14.5r13b14.5r13b14.5r----|
D|--/12-/12-/12----------15p13p12-15-12--/12-/12-/12---------------------------|
A|--/12-/12-/12--------------------------/12-/12-/12---------------------------|
E|--/10-/10-/10--------------------------/10-/10-/10---------------------------|

E|---------------------------------------------------------------------------|
B|---------------------------------------------------------------------------|
G|--13-----------------------------------------------------------------------|
D|--------5---5--7b-5---4-------5---5--7b-5---4------------------------------|
A|------7---7---------7---5---7---7---------7---5----------------------------|
E|---------------------------------------------------------------------------|
Colaboração e revisão:
  • Diego Martins
119 exibições
    • ½ Tom
    • A
    • Bb
    • B
    • C
    • Db
    • D
    • Eb
    • E
    • F
    • F#
    • G
    • Ab
  • Adicionar à lista

    0 comentários

    Ver todos os comentários

    Conseguiu tocar?

    0 Tocaram 0 Ainda não

    Grave um vídeo tocando Easy Livin e nos envie!

    00:00 / 00:00
    outros vídeos desta música
    repetir qualidade Automático
    Outros vídeos desta música
    00:00 / 00:00
    Automático

    Cifra Club Pro

    Aproveite o Cifra Club com benefícios exclusivos e sem anúncios
    Cifra Club Pro
    Aproveite o Cifra Club com benefícios exclusivos e sem anúncios
    OK