Cifra Club

Hole In My Head

Feeder

Tab de baixo: Principal
Yesterday Went Too Soon

Intro

G|-----------------------------------|
D|-----------------------------------|
A|--6-6-6-6-6-6-6-6------------------|
E|------------------6-6-6-6-6-6-6-6--|

G|-----------------------------------|
D|-----------------------------------|
A|-----------------------------------|
E|--3-3-3-3-3-3-3-3-4-4-4-4-4-4-4-4--|

Verse

G|-----------------------------------|
D|-----------------------------------|
A|--6-6-6-6-6-6-6-6------------------|
E|------------------6-6-6-6-6-6-6-6--|

G|-----------------------------------|
D|-----------------------------------|
A|-----------------------------------|
E|--3-3-3-3-3-3-3-3-4-4-4-4-4-4-4-4--|

Pre-Chorus Piece

G|-----------------------------------|
D|-----------------------------------|
A|-----------------------------------|
E|--1-1-1-1-1-1-1-1-4-4-4-4-4-4-4-4--|

Chorus

G|------------------------|
D|------------------------|
A|--6-6-----3-3-----------|
E|------6-6-----4-4-------|


Solo
G|-----------------------------------|
D|-----------------------------------|
A|--6-6-6-6-6-6-6-6------------------|
E|------------------4-4-4-4-4-4-4-4--|

Bridge
G|-----------------------------------|
D|-----------------------------------|
A|--3-3-3-3-3-3-3-3-5-5-5-5-5-5-5-5--|
E|-----------------------------------|
00:00 / 00:00
Outros vídeos desta música
Repetir
Outros vídeos desta música
Compositor não encontrado.
150 exibições

0 comentários

Ver todos os comentários

Conseguiu tocar?

0 Tocaram 0 Ainda não

Grave um vídeo tocando Hole In My Head e nos envie!

00:00 / 00:00

Cifra Club Pro

Aproveite o Cifra Club com benefícios exclusivos e sem anúncios
Cifra Club Pro
Aproveite o Cifra Club com benefícios exclusivos e sem anúncios
OK