Intuition

Feist

Composição de: Feist
tom: G
Intro
                                                               
--------------------------|-------------------------|    
---------------7----------|---------------7-5-------|
----7---7---7-(7)-9--7----|----7---7---6-------7----|
--------------------------|-------------------------|
--7---7---7---------------|-------------------------|
--------------------------|--7---7---5--------------|



Intro 2

-----------------------------|-------------------------|
----10-7---7----7-10---------|---------------7-5-------|
----------------------7----7-|----7---7---6-------7----|
-----------------------------|-------------------------|
--7-----7-----7----------7---|-------------------------|
-----------------------------|--7---7---5--------------|


Verso

----------------------|----------------------|
----------------------|----------------------|
----7---7---7---7-----|----7---7---6---6-----|
----------------------|----------------------|     repetir se necessario.
--7---7---7---7-------|----------------------|
----------------------|--7---7---5---5-------|

----------------------|----------------------|----------------------|
----------------------|----------------------|----------------------|
----7---7---7---7-----|----4---4---4---4-----|----6---6---6---6-----|
----------------------|----5---5---5---5-----|----7---7---7---7-----|
--7---7---7---7-------|----------------------|----------------------|
----------------------|--3---3---3---3-------|--5---5---5---5-------|


Pre-Chorus/Chorus

----------------------|----------------------|
----------------------|----------------------|
----4---4---4---4-----|----6---6---6---6-----|   
----5---5---5---5-----|----7---7---7---7-----|
----------------------|----------------------|
--3---3---3---3-------|--5---5---5---5-------|

repetir se necessario. acabando em:

--------------------|
--------------------|
--7-----------------|
--------------------|
--7-----------------|
--------------------|
Página 1 / 1

Letras e título
Acordes e artista

resetar configurações
OK