My Moon My Man

Feist

Composição de: Feist / Jason Gonzales Charles Beck
tom: D
Tabbed by Alex Daish

Great little simple ditty. You can add on more if you want but here are the basics. 
isnt really much guitar as much of it is just bashing out chords on piano.

Key of D

Verse and Chorus
E|-------------------------------|
B|-------------------------------|
G|-------------------------------| Entire song
D|-------------------------------|
A|-7-7-7-7-7-7---------------5-5-|
E|-------------3-3/5-5-5-5-5-----|

Alternitively you can bash out

     Em        G      A       D
e|-7-7-7-7-7-7-3-3-5-5-5-5-5-5-5-5-|
B|-8-8-8-8-8-8-3-3-5-5-5-5-5-5-7-7-|
G|-9-9-9-9-9-9-4-4-6-6-6-6-6-6-7-7-|
D|-9-9-9-9-9-9-5-5-7-7-7-7-7-7-7-7-|
A|-7-7-7-7-7-7-5-5-7-7-7-7-7-7-5-5-|
E|-------------3-3-5-5-5-5-5-5-----|

Main Riff

E|----------------------------------------------|
B|----------------------------------------------|
G|-12--9--12--9--12--9-12-9---12--9-12-9--------|
D|--------------------------9------------9--7/9-|
A|----------------------------------------------|
E|----------------------------------------------|

Enjoy
Página 1 / 1

Letras e título
Acordes e artista

resetar configurações
OK