Cifra Club

Ainda Sou Tão Seu

Felipe Araújo

Cifra: Principal (violão e guitarra)
exibições 40.704
Tom: E (forma dos acordes no tom de D) Capotraste na 2ª casa
[Intro] C  G  Am  F

[Violão 1]

E|--------------------------------------------|
B|--------------------------------------------|
G|-5p4--5-5-5-5~---------------9--7\5---------|
D|----------------5-5-5-5-5-5-----------5-----|
A|--------------------------------------------|
E|--------------------------------------------|

E|--------------------------------------------|
B|-4h5--4h5--4h5--4\2--2/4~-------------------|
G|--------------------------------------------|
D|--------------------------------------------|
A|--------------------------------------------|
E|--------------------------------------------|

E|----------3h5--3----------------------------|
B|-5-5-5-6-------------5/6-5~-----------------|
G|------------------5-------------------------|
D|--------------------------------------------|
A|--------------------------------------------|
E|--------------------------------------------|

E|----------3h5--3----------------------------|
B|-5-5-5-6-------------5/6-5~-----------------|
G|------------------5-------------------------|
D|--------------------------------------------|
A|--------------------------------------------|
E|--------------------------------------------|

E|--------------------------------------------|
B|--------------------------------------------|
G|--------------------------------------------|
D|-7-7-7--5h7p5--3--2~------------------------|
A|--------------------------------------------|
E|--------------------------------------------|

[Violão 2]

E|--------------------------------------------|
B|-5p4--5-5-5-5~---------------8--6p5---------|
G|----------------5-5-5-5-5-5-----------5-----|
D|--------------------------------------------|
A|--------------------------------------------|
E|--------------------------------------------|

E|--------------------------------------------|
B|-7/9--7h9--7h9--7\5--5/7~-------------------|
G|--------------------------------------------|
D|--------------------------------------------|
A|--------------------------------------------|
E|--------------------------------------------|

E|--------------------------------------------|
B|----------5h6--5----------------------------|
G|-5-5-5-7-------------5h7--5~----------------|
D|------------------7-------------------------|
A|--------------------------------------------|
E|--------------------------------------------|

E|--------------------------------------------|
B|----------5h6--5----------------------------|
G|-5-5-5-7-------------5h7--5~----------------|
D|------------------7-------------------------|
A|--------------------------------------------|
E|--------------------------------------------|

E|--------------------------------------------|
B|--------------------------------------------|
G|--------------------------------------------|
D|-3-3-3--2h3p2-------------------------------|
A|---------------5--3~------------------------|
E|--------------------------------------------|

C
 Era mais fácil ter beijado aquela boca 
Mais cedo na balada 

[Riff 1]

E|--------------------------------------------|
B|--------------------------------------------|
G|--------------------------------------------|
D|--------5-----------------------------------|
A|-3h5/7-----7~-------------------------------|
E|--------------------------------------------|

F
 Era mais fácil ter ficado com a minha turma 
Só enchendo a cara 

[Riff 2]

E|--------------------------------------------|
B|-6/8\6--------------------------------------|
G|-x-------5/7\5------------------------------|
D|-x--------------3/5\3~----------------------|
A|-x------------------------------------------|
E|-x------------------------------------------|

C
 Porque que eu não quis passar meu telefone 
Pra ninguém, outra vez 

[Violão Slide]

E|--------------------------------------------|
B|--------------------------------------------|
G|-7--7/9--9\5--5/7\5~--7--7/9--9\5--5/7\5~---|
D|--------------------------------------------|
A|--------------------------------------------|
E|--------------------------------------------|

F
 Porque que eu corri pro banheiro 
Quando alguém falou seu nome 

[Violão Slide]

E|--------------------------------------------|
B|--------------------------------------------|
G|-7--7/9--9\5--5/7\5~---5\-------------------|
D|-----------------------5\-------------------|
A|--------------------------------------------|
E|--------------------------------------------|

      Am
E chorei, chorei 
   G                                     F
Parece que eu ainda não to pronto pra beber 
Pra sair, pra viver 

 C
Ainda sou tão seu 
                     G
Adivinha quem ainda não te esqueceu 
             Am
Nem meu coração nem eu 
             F
Nem meu coração nem eu 

 C
Ainda sou tão seu 
                     G
Adivinha quem ainda não te esqueceu 
             Am
Nem meu coração nem eu 
             F
Nem meu coração nem eu 
Nem meu coração nem eu

( C  G  Am  F )

      Am
E chorei, chorei 
   G                                     F
Parece que eu ainda não to pronto pra beber 
Pra sair, pra viver 

 C
Ainda sou tão seu 
                     G
Adivinha quem ainda não te esqueceu 
             Am
Nem meu coração nem eu 
             F
Nem meu coração nem eu 

 C
Ainda sou tão seu 
                     G
Adivinha quem ainda não te esqueceu 
             Am
Nem meu coração nem eu 
             F
Nem meu coração nem eu
                    C 
Nem meu coração nem eu
Acordes para:
    Composição: Gabriel Agra / Thales Lessa Colaboração e revisão:
    • Thiago Almeida
    • Caroline Leroy

    0 comentários

    mostrar mais comentários

    Conseguiu tocar?

    8 tocaram 4 ainda não

    Grave um vídeo tocando Ainda Sou Tão Seu e mande pra gente!

    00:00 / 00:00
    outros vídeos desta música
    repetir qualidade Automático
    Outros vídeos desta música
    00:00 / 00:00
    Automático
    OK