Cifra Club

Se Pegar Cê Chora

Felipe Araújo

Cifra: Principal (violão e guitarra)
exibições 6.913
Tom: B
      B9
Você sabe o que tem em comum
             F#                        C#m
Entre o celular do seu amor e uma cebola?
            E
Preste atenção vou te dizer agora

 B9           F#
Se pegar cê chora
              C#m
Se pegar cê chora
 E            B9
Se pegar cê chora

[Solo] B9  F#  C#m  E
       B9  F#  C#m  E

E|------------------------------------------|
B|------------------------------------------|
G|------------------------------------------|
D|---------4-1------------4-1---------------|
A|-2-2-2h4-----4--2-2-2h4-----4-2-2---------|
E|------------------------------------------|

E|------------------------------------------|
B|------------------------------------------|
G|------------------------------------------|
D|---------4-1------------4-1---------------|
A|-2-2-2h4-----4--2-2-2h4-----4-2-2---------|
E|------------------------------------------|

     B9
Foi só um videozinho do grupo
Que baixou sem querer
                                    C#m
Se o contatinho ligar não pode atender
Vai jurar pelo gato
                   E                     F#
E o miau tem sete vidas, ele não vai morrer

        C#m                  E
No whatsapp, é o lider da resenha
                B9
O rei da malandragem
                 F#                 C#m
Se ele te der a senha não queira saber
                 E
Cê não vai entender
                F#
E é melhor não ter

      B9
Você sabe o que tem em comum
             F#                        C#m
Entre o celular do seu amor e uma cebola?
            E
Preste atenção vou te dizer agora

 B9           F#
Se pegar cê chora
              C#m
Se pegar cê chora
 E            B9
Se pegar cê chora

      B9
Você sabe o que tem em comum
             F#                        C#m
Entre o celular do seu amor e uma cebola?
            E
Preste atenção vou te dizer agora

 B9           F#
Se pegar cê chora
              C#m
Se pegar cê chora
 E            B9
Se pegar cê chora

[Solo] B9  F#  C#m  E
       B9  F#  C#m  E

E|------------------------------------------|
B|------------------------------------------|
G|------------------------------------------|
D|---------4-1------------4-1---------------|
A|-2-2-2h4-----4--2-2-2h4-----4-2-2---------|
E|------------------------------------------|

E|------------------------------------------|
B|------------------------------------------|
G|------------------------------------------|
D|---------4-1------------4-1---------------|
A|-2-2-2h4-----4--2-2-2h4-----4-2-2---------|
E|------------------------------------------|

     B9
Foi só um videozinho do grupo
Que baixou sem querer
                                    C#m
Se o contatinho ligar não pode atender
Vai jurar pelo gato
                   E                     F#
E o miau tem sete vidas, ele não vai morrer

        C#m                  E
No whatsapp, é o lider da resenha
                B9
O Rei da malandragem
                 F#                 C#m
Se ele te der a senha não queira saber
                 E
Cê não vai entender
                F#
E é melhor não ter

      B9
Você sabe o que tem em comum
             F#                        C#m
Entre o celular do seu amor e uma cebola?
            E
Preste atenção vou te dizer agora

 B9           F#
Se pegar cê chora
              C#m
Se pegar cê chora
 E            B9   C#m
Se pegar cê chora

      B9
Você sabe o que tem em comum
             F#                        C#m
Entre o celular do seu amor e uma cebola?
            E
Preste atenção vou te dizer agora

 B9           F#
Se pegar cê chora
              C#m
Se pegar cê chora
 E            B9
Se pegar cê chora

      B9
Você sabe o que tem em comum
             F#                        C#m
Entre o celular do seu amor e uma cebola?
            E
Preste atenção vou te dizer agora

 B9           F#
Se pegar cê chora
              C#m
Se pegar cê chora
 E            B9
Se pegar cê chora
Acordes para:
    Composição: Tierry Colaboração e revisão:
    • Thiago Almeida
    • Anderson Almeida

    0 comentários

    mostrar mais comentários

    Conseguiu tocar?

    2 tocaram 0 ainda não

    Grave um vídeo tocando Se Pegar Cê Chora e mande pra gente!

    00:00 / 00:00
    outros vídeos desta música
    repetir qualidade Automático
    Outros vídeos desta música
    00:00 / 00:00
    Automático
    OK