Cifra Club

Legal e Ilegal

Felipe Cordeiro

Cifra: Principal (violão e guitarra)
exibições 2.402
Tom: D
                                               Fm
|---------------------------------------------|---------------------------------------------|
|---------------------------------------------|---------------------------------------------|
|---------------------------------------------|---------------------------------------------|
|---------------------------------------------|---------------------------------------------|
|---222222--------------------------------|--111111--------------------------------|
|----------------0-2-3----2--3--2---------|--------------2-2-3---2-3-2-------------|

         Bm                                                                                                  G        F#    Bm
|---------------------------------------------|-------------------------------------3-------2-----2-------|
|---------------------------------------------|-------------------------------------3-------2-----2-------|
|---------------------------------------------|-------------------------------------4-------3-----4-------|
|---------------------------------------------|-------------------------------------3-------4-----4-------|
|---222222--------------------------------|--11111--1--4----5----2------ 5-------4-----2-------|
|----------------0-2-3----2--3--2---------|------------3-----------------------3-------2-----x-------|

                                                          F#
Aguardente no bom samba canção
                                              Bm
Uisquinho da bossa nova
                                                F#
Caspa do diabo no rock'n'roll
Em               F#                  Bm     G   F#  Bm
Erva do amor no reggae night

                      G                             F#
Cultura sintética no drum'n'bass

(rosinha, branquinha, pílula amarela)
                                                Bm
Cuba libre na salsa peruana
                                                                      F#
Flocos de milho com cerveja no velho punk
Em               F#                  Bm     G  F#  Bm
Lança perfume no carnaval

                      G                      F#
A gengibirra no marabaixo
                                        Bm
Muito tabaco no bolero (essa eu não tolero, essa eu não tolero)
                                                     Em                              F#
Um vinhozinho ou chocolate quente (no tango é bom)
                                         Bm                                       G                     F#            Bm
A tequila no merengue (é dessa que eu gosto, é dessa que eu gosto)

                                               F#
|---------------------------------------------|---------------------------------------------|
|---------------------------------------------|---------------------------------------------|
|---------------------------------------------|---------------------------------------------|
|---------------------------------------------|---------------------------------------------|
|---222222--------------------------------|--111111--------------------------------|
|----------------0-2-3----2--3--2---------|--------------2-2-3---2-3-2-------------|

         Bm                                                                                                  G        F#    Bm          G
|---------------------------------------------|-------------------------------------3-------2-----2-------- -3---|
|---------------------------------------------|-------------------------------------3-------2-----2----------3---|
|---------------------------------------------|-------------------------------------4-------3-----4----------4---|
|---------------------------------------------|-------------------------------------3-------4-----4----------3---|
|---222222--------------------------------|--11111--1--4----5----2------ 5-------4-----2----------5---|
|----------------0-2-3----2--3--2---------|------------3-----------------------3-------2-----x----------3---|
Acordes para:
    Composição: Felipe Cordeiro Colaboração e revisão:
    • Diogo Lessa
    • Felipe Miyake

    0 comentários

    mostrar mais comentários

    Conseguiu tocar?

    2 tocaram 0 ainda não

    Grave um vídeo tocando Legal e Ilegal e mande pra gente!

    00:00 / 00:00
    outros vídeos desta música
    repetir qualidade Automático
    Outros vídeos desta música
    00:00 / 00:00
    Automático
    OK