Universo Canta

Felipe Magalhães

Tom: G
[Intro]

[Riff 1]

E|----------------------------------------|
B|--13-13-13-13-12-13-13-13-13------------|
G|--12-12-12-12-11-12-12-12-12------------|  (4x)
D|--10-10-10-10-9--10-10-10-10------------|
A|----------------------------------------|
E|----------------------------------------|

[Riff 2]

E|----------------------------------------|
B|--15-15-15-14-14------------------------|
G|--14-14-14-14-13------------------------|  (8x)
D|--12-12-12-12-11------------------------|
A|----------------------------------------|
E|----------------------------------------|

Em                                 (Riff 1)
Tua majestade faz a terra te adorar
Em                                         (Riff 1)
O universo canta, os céus revelam teu poder
D                      C
Na imensidão dos mares vejo a tua mão
D                              C
A tua glória está em tua criação

Em              G           D
No levantar das minhas mãos darei louvor
Em                  G          D
E erguendo a voz declararei do meu amor

Em                                 (Riff 1)
Tua majestade faz a terra te adorar
Em                                         (Riff 1)
O universo canta, os céus revelam teu poder
D                      C                  
Na imensidão dos mares vejo a tua mão
D                              C
A tua glória está em tua criação

[Solo] Em  G  C  D

Em              G           D
No levantar das minhas mãos darei louvor
Em                  G          D
E erguendo a voz declararei do meu amor

D                      C
Na imensidão dos mares vejo a tua mão
D                              C
A tua glória está em tua criação

Em              G           D
No levantar das minhas mãos darei louvor
Em                  G          D
E erguendo a voz declararei do meu amor
Página 1 / 1

Letras e título
Acordes e artista

resetar configurações
OK