Amapola

Felipe Peláez

Composição de: Juan luis Guerra
tom: A
Intro

 A                    Bm                Bm                   A
E|----------0-------|----------0----|-------0-----|----------0-------|
|0---2--------2----|3----------3---|3--------3---|0---2--------2----|
G|--------2-------2-|----4--------4-|---4-------4-|--------2-------2-|
D|------------------|------4--------|-----3-------|------------------|
|0-----------------|2--------------|2------------|0-----------------|
E|------------------|---------------|-------------|------------------|

Abre las hojas del ..viento mi vida....
|9----9-----9---9-9|7-----7----7---7-7|
B|------------------|------------------|
G|---9----9---9-----|---9----9----9----|
|7-----------------|8-----------------|
A|------------------|------------------|
E|------------------|------------------|

....ponle una montura al rio
|5----5---5----5-5|4----4----4----4-4|
B|-----------------|------------------|
G|---7---7---7-----|---6----6----6----|
|4----------------|3-----------------|
A|-----------------|------------------|

cabalga y.........si te da frio..te arropas con la piel de las estrellas
|3----3----3---3-3|2---2---2---2-2|1---1---1---1-1|0----0----0---0-0-|
B|--2----2----2----|--0---0---0----|--0---0---0----|------------------|
G|-----------------|---------------|---------------|---2---2----2-----|
|2----------------|1--------------|0--------------|------------------|
A|-----------------|---------------|---------------| 0-----------------|
E|-----------------|---------------|---------------|------------------|

De almohada la luna lle...na mi vida....y de sueño el amor mio
|0-----0----0----0-0|-------------------|0---2---4-2-0|
B|-------------------| 3-----3---3----3-3-|-------------|
G|---2----2----2-----|---2----2---2------|-------------|
D|-------------------|-------------------|-------------|
|3------------------|-------------------|-------------|
E|-------------------| 2------------------|-------------|

Y una amapola....     me lo dijo ayer...que te voy a ver.. que te voy a ver
E|----------0-------|----------0----|-------0-----|----------0-------|
|0---2--------2----|3----------3---|3--------3---|0---2--------2----|
G|--------2-------2-|----4--------4-|---4-------4-|--------2-------2-|
D|------------------|------4--------|-----3-------|------------------|
|0-----------------|2--------------|2------------|0-----------------|
E|------------------|---------------|-------------|------------------|

Y un arcoiris        me pinto la piel   para amanecer      contigo
E|----------0-------|----------0----|-------0-----|----------0-------|
|0---2--------2----|3----------3---|3--------3---|0---2--------2----|
G|--------2-------2-|----4--------4-|---4-------4-|--------2-------2-|
D|------------------|------4--------|-----3-------|------------------|
|0-----------------|2--------------|2------------|0-----------------|
E|------------------|---------------|-------------|------------------|

Aca esta la letra de la cancion completa:

Hola te gustaria bailar esta cancion conmigoo? Vamos..


Abre las hojas del viento mi vida
ponle una montura al rio
cabalga y si te da frio te arropas
con la piel de las estrellas
de almohada la luna llena mi vida
y de sueño el amor mio

y una amapola me lo dijo ayer
que te voy a ver que te voy a ver
y un arco iris me pinto la piel
para amanecer contigo

cierra la noche y el dia mi vida
para que todo sea nuestro
y una gran fuga de besos
se posen sobre tu boca
ai y que el trinar de las rosas mi vida
que digan cuanto te quiero

y una amapola me lo dijo ayer
que te voy a ver que te voy a ver
y un arco iris me pinto la piel
para amanecer contigo

y una amapola me lo dijo ayer
que te voy a ver que te voy a ver
y un arcoiris me pinto la piel
para amanecer contigoo...

y una amapola me lo dijo ayer
que te voy a ver que te voy a ver
y un arco iris me pinto la piel
para amanecer contigoo

y una amapola me lo dijo ayer
que te voy a ver que te voy a ver
y un arco iris me pinto la piel
para amanecer contigo...
Hola te gustaria bailar esta cancion conmigoo? Vamos..


Abre las hojas del viento mi vida
ponle una montura al rio
cabalga y si te da frio te arropas
con la piel de las estrellas
de almohada la luna llena mi vida
y de sueño el amor mio

y una amapola me lo dijo ayer
que te voy a ver que te voy a ver
y un arco iris me pinto la piel
para amanecer contigo

cierra la noche y el dia mi vida
para que todo sea nuestro
y una gran fuga de besos
se posen sobre tu boca
ai y que el trinar de las rosas mi vida
que digan cuanto te quiero

y una amapola me lo dijo ayer
que te voy a ver que te voy a ver
y un arco iris me pinto la piel
para amanecer contigo

y una amapola me lo dijo ayer
que te voy a ver que te voy a ver
y un arcoiris me pinto la piel
para amanecer contigoo...

y una amapola me lo dijo ayer
que te voy a ver que te voy a ver
y un arco iris me pinto la piel
para amanecer contigoo

y una amapola me lo dijo ayer
que te voy a ver que te voy a ver
y un arco iris me pinto la piel
para amanecer contigo...
Página 1 / 1

Letras e título
Acordes e artista

resetar configurações
OK