Cifra Club

El amor más grande del planeta

Felipe Peláez

Cifra: Principal (violão e guitarra)
tom: E
E|-5/7--7-7-7-7--5-5| >7-5---3--3-3-5-5--7-5-5--3------
B|-7/8--8-8-8-8--7-7---7---5--5-5-5-5--7-7-7--5--3---|
G|-----------------------------------------------4---|
D|---------------------------------------------------|
A|---------------------------------------------------|
E|---------------------------------------------------|

Pedazo  rápido
E|-5—5>2-3-3-3---5—5>2--3-3-3 -3-3-3--2-2-3-5--------
B|--5----5-5-5----5-----5-5-5--5-5-5--3-3-5-7--------|
G|---------------------------------------------------|
D|---------------------------------------------------|
A|---------------------------------------------------|
E|---------------------------------------------------|
00:00 / 00:00
Outros vídeos desta música
Repetir
Outros vídeos desta música
Composição de Omar Geles Suarez
52 exibições
    • ½ Tom
    • A
    • Bb
    • B
    • C
    • Db
    • D
    • Eb
    • E
    • F
    • F#
    • G
    • Ab
  • Adicionar à lista

    0 comentários

    Ver todos os comentários

    Conseguiu tocar?

    0 Tocaram 0 Ainda não

    Grave um vídeo tocando El amor más grande del planeta e nos envie!

    00:00 / 00:00

    Cifra Club Pro

    Aproveite o Cifra Club com benefícios exclusivos e sem anúncios
    Cifra Club Pro
    Aproveite o Cifra Club com benefícios exclusivos e sem anúncios
    OK