Diz Que Sim

Felipe Santanna

tom: E
Intro: E A E A

E       A                   E
Vem  entra que eu te espero aqui
       A                 F#m
To louco pra ouvir esse sim
G#m                   F#m
Quero pedir a sua mão
G#m                  F#m
Completar a nossa união
A                    Am              E
Fazer desse momento......... o mais feliz
Solo:
   E        A       E       A
E|--4/5-4-0-------4/5-4-----
B|----------0---------------
G|------------4-6-----------
D|--------------------------
A|--------------------------
E|--------------------------

E|--4/5-4-0---9/11-9--------
B|----------0---------------
G|--------------------------
D|--------------------------
A|--------------------------
E|--------------------------

E   A                       E
Lê, vamos casar vamos nos unir
A                            F#m
Esperei por esse dia estou aqui
G#m                             F#m
De corpo, alma e benção nesse altar
A                       Am                E
Esperando a grande hora......... de ouvir sim

A                        E
Deus muito obrigado por a gente estar aqui
A                       E
Agradeço ao senhor por a gente ser feliz
F#m            B7                 E    B7
Ser feliz, ser feliz, ser feliz
Página 1 / 1

Letras e título
Acordes e artista

resetar configurações
OK