Cifra Club

Marcha Nupcial

Felix Mendelssohn

Cifra: Principal
exibições 89.079
Tom: C
(Parte 1)

E|-----------------------|------------------------|------------------------|
B|-----------------------|------------------------|------------------------|
G|-----------------------|------------------------|------------------------|
D|-----------------------|------------------------|------------------------|
A|--------------3--3--3--|--3------------3--3--3--|--3------------3--3--3--|
E|-----------------------|------------------------|------------------------|

E|------------------------------|------------------------------|
B|------------------------------|------------------------------|
G|------------------------------|--0----0--0--0--0----0--0--0--|
D|--2----2--2--2--2----2--2--2--|--2----2--2--2--2----2--2--2--|
A|--3----3--3--3--3----3--3--3--|--3----3--3--3--3----3--3--3--|
E|------------------------------|------------------------------|

                                               tr
E|--8--------7---------|--5----3----1---------|---------------------------|
B|--7--------7------7--|--7----5----3----3----|--1h3-----------3--------3-|
G|--9--------8------8--|-----------------2----|---------------------0-----|
D|---------------------|----------------------|---------------------2-----|
A|---------------------|----------------------|---------------------------|
E|---------------------|----------------------|---------------------------|

E|--0----------------0--3--|--8--------7---------|--5----3----1---------|
B|----------------1--------|--7--------7------7--|--7----5----3----3----|
G|--0----------0-----------|--9--------8------8--|-----------------2----|
D|----------2--------------|---------------------|----------------------|
A|-------3-----------------|---------------------|----------------------|
E|-------------------------|---------------------|----------------------|

  tr
E|--------------0--------0-|-------------------|--------------------------|
B|--1h3--------------3-----|--3------1---1-1-1-|--1-------------1---1-1-1-|
G|-------------------------|-------------------|-------------0------------|
D|-------------------3-----|--3------2---------|----------2---------------|
A|-------------------------|-------------------|-------3------------------|
E|-------------------------|-------------------|--------------------------|

E|----------------0---------|--0-------------0----------0--|
B|--1----------1------1-1-1-|--1----------1----------1-----|
G|----------0---------------|----------0----------0--------|
D|-------2------------------|-------2----------------------|
A|--------------------------|------------------------------|
E|--------------------------|------------------------------|

E|--3----------0--3-------0--3--|--8--------7---------|--5----3----1---------|
B|----------1----------1--------|--7--------7------7--|--7----5----3----3----|
G|-------0----------------------|--9--------8------8--|-----------------2----|
D|------------------------------|---------------------|----------------------|
A|------------------------------|---------------------|----------------------|
E|------------------------------|---------------------|----------------------|

  tr
E|---------------------------|--0----------------0--3--|--8--------7---------|
B|--1h3-----------3--------3-|----------------1--------|--7--------7------7--|
G|---------------------0-----|--0----------0-----------|--9--------8------8--|
D|---------------------2-----|----------2--------------|---------------------|
A|---------------------------|-------3-----------------|---------------------|
E|---------------------------|-------------------------|---------------------|

                         tr
E|--5----3----1---------|--------------0--------0-|---------------------|
B|--7----5----3----3----|--1h3--------------3-----|--3--------1---1-1-1-|
G|-----------------2----|-------------------------|---------------------|
D|----------------------|-------------------3-----|--3--------2---------|
A|----------------------|-------------------------|---------------------|
E|----------------------|-------------------------|---------------------|

E|--------------------------|----------------0---------|
B|--1-------------1---1-1-1-|--1----------1------1-1-1-|
G|-------------0------------|----------0---------------|
D|----------2---------------|-------2------------------|
A|-------3------------------|--------------------------|
E|--------------------------|--------------------------|

E|--0-------------0----------0--|
B|--1----------1----------1-----|
G|----------0----------0--------|
D|-------2----------------------|
A|------------------------------|
E|------------------------------|




(Parte 2)


E|--------------------|---------------------|
B|--3--------1--------|--1--------1------1--|
G|--------------------|--0--------0------0--|
D|--3--------2--------|--2--------2------2--|
A|--------------------|---------------------|
E|--------------------|---------------------|

E|--0-------------------|-------------------0--|--0-------------------|
B|--1----3--------------|---------1--1------1--|--1----3--------------|
G|--0----4----4----0----|--0------0--0------0--|--0----4----4----0----|
D|------------3----3----|--2------2--2---------|------------3----3----|
A|----------------------|----------------------|----------------------|
E|----------------------|----------------------|----------------------|

E|---------0--0------3--|--3--------1----0----|-----------0------------|
B|---------1--1------5--|--5--------3----1----|--3----1-----3--------1-|
G|--0------0--0------5--|--5--------2----2----|--2----2-----2----2-----|
D|--2-------------------|--5------------------|------------------------|
A|----------------------|---------------------|------------------------|
E|----------------------|---------------------|------------------------|

E|-------3----5----7----|--8--------7---------|--5----3----1---------|
B|--0--------------0----|--7--------7------7--|--7----5----3----3----|
G|--0----0----2---------|--9--------8------8--|-----------------2----|
D|----------------------|---------------------|----------------------|
A|----------------------|---------------------|----------------------|
E|----------------------|---------------------|----------------------|

  tr
E|---------------------------|--0----------------0--3--|--8--------7---------|
B|--1h3-----------3--------3-|----------------1--------|--7--------7------7--|
G|---------------------0-----|--0----------0-----------|--9--------8------8--|
D|---------------------2-----|----------2--------------|---------------------|
A|---------------------------|-------3-----------------|---------------------|
E|---------------------------|-------------------------|---------------------|

                         tr
E|--5----3----1---------|--------------0--------0-|-------------------------|
B|--7----5----3----3----|--1h3--------------3-----|--3--------1-------------|
G|-----------------2----|-------------------------|-------------------------|
D|----------------------|-------------------3-----|--3--------2-------------|
A|----------------------|-------------------------|----------------3--3--3--|
E|----------------------|-------------------------|-------------------------|

E|-------------------------|-------------------------|
B|-------------------------|-------------------------|
G|-------------------------|-------------------------|
D|-------------------------|-------------------------|
A|--3-------------3--3--3--|--3-------------3--3--3--|
E|-------------------------|-------------------------|

E|------------------------------|------------------------------|
B|------------------------------|------------------------------|
G|------------------------------|--0----0--0--0--0----0--0--0--|
D|--2----2--2--2--2----2--2--2--|--2----2--2--2--2----2--2--2--|
A|--3----3--3--3--3----3--3--3--|--3----3--3--3--3----3--3--3--|
E|------------------------------|------------------------------|

E|------------------------------|--0----------------||
B|--1-------1-----1----1--1--1--|--1----------------||
G|--0----0--0--0--0----0--0--0--|--0----------------||
D|--2----2--2--2--2----2--2--2--|--2----------------||
A|--3----3--3--3--3----3--3--3--|--3----------------||
E|------------------------------|--3----------------||
Acordes para:
    Colaboração e revisão:
    • Márcio (Susuno)
    • David Rocha

    0 comentários

      mostrar mais comentários

      Conseguiu tocar?

      4tocaram4ainda não

      Grave um vídeo tocando Marcha Nupcial e mande pra gente!

      00:00 / 00:00
      outros vídeos desta música
      repetirqualidadeautomática
      Outro vídeos desta música
        00:00 / 00:00
        automática
        OK