Cifra Club

Marcha Nupcial

Felix Mendelssohn

Cifra: Principal (violão e guitarra)
tom: C
[Primeira Parte]

E|----------------------------------------------------|
B|----------------------------------------------------|
G|----------------------------------------------------|
D|----------------------------------------------------|
A|--------------------------------3-3-3-3---3-3-3-3---|
E|----------------------------------------------------|

E|----------------------------------------------------|
B|----------------------------------------------------|
G|-----------------------------0---0-0-0-0---0-0-0----|
D|---------2---2-2-2-2---2-2-2-2---2-2-2-2---2-2-2----|
A|---3-3-3-3---3-3-3-3---3-3-3-3---3-3-3-3---3-3-3----|
E|----------------------------------------------------|

E|-8--7-----5--3--1----------------------------0------|
B|-8--7--7--7--5--3--3--1h3p1...--0h1h3-----3---------|
G|-9--8--8-----------2--0----------------0------------|
D|----------------------------------------------------|
A|----------------------3----------------------3------|
E|---------------------------------------3------------|

E|---------------8--7-----5--3--1---------------------|
B|------------1--8--7--7--7--5--3--3--1h3p1...--0h1h3-|
G|-----0----0----7--8--8-----------2--0---------------|
D|---2----2-------------------------------------------|
A|-3----------------------------------3---------------|
E|----------------------------------------------------|

E|----0-----------------------------------------------|
B|------3--1--1---------------------------------------|
G|-0--------------------------------------------------|
D|----------------------------------------------------|
A|------3-----3---------------------------------------|
E|-3--------------------------------------------------|

E|----------------------------------------------------|
B|-----------------------------------------5----------|
G|-------------------5-------------------5------------|
D|-----------------5-------------------5------------2-|
A|--3-3-3-3----3-7---------3-3-3-3---7--------3-3-3-3-|
E|----------------------------------------------------|

E|----------------------------------------------------|
B|----------------------------------------------------|
G|------------------0-----0-0-0-0----0-0-0------------|
D|-2-2-2-2----2-2-2-2-----2-2-2-2----2-2-2------------|
A|-3-3-3-3----3-3-3-3-----3-3-3-3----3-3-3------------|
E|----------------------------------------------------|

E|-8--7-----5--3--1----------------------------0------|
B|-8--7--7--7--5--3--3--1h3p1...--0h1h3-----3---------|
G|-9--8--8-----------2--0----------------0------------|
D|----------------------------------------------------|
A|----------------------3----------------------3------|
E|---------------------------------------3------------|

E|---------------8--7-----5--3--1---------------------|
B|------------1--8--7--7--7--5--3--3--1h3p1...--0h1h3-|
G|-----0----0----7--8--8-----------2--0---------------|
D|---2----2-------------------------------------------|
A|-3----------------------------------3---------------|
E|----------------------------------------------------|

E|----0-----------------------------------------------|
B|------3--1--1---------------------------------------|
G|-0--------------------------------------------------|
D|----------------------------------------------------|
A|------3-----3---------------------------------------|
E|-3--------------------------------------------------|

[Segunda Parte]

E|----------0----------------------0-0----------------|
B|-1--1--1--1--3--------------1-1--1-1---3------------|
G|-0--0--0--0--4--4--0--0-----0-0--0-0---4--4--0--0---|
D|-2--2--2--------3--3--2-----2-2-----------3--3--2---|
A|----------------------------------------------------|
E|----------------------------------------------------|

E|-0--0----3--3----1--0--------0-------------3--5--7--|
B|-1--1----5--5----3--1--3--1---3----1--0----------0--|
G|-0--0----5--5----2--2--2--2---2--2----0----0--2-----|
D|------------5---------------------------------------|
A|----------------------------------------------------|
E|----------------------------------------------------| 

[Primeira Parte]

E|-8--7-----5--3--1----------------------------0------|
B|-8--7--7--7--5--3--3--1h3p1...--0h1h3-----3---------|
G|-9--8--8-----------2--0----------------0------------|
D|----------------------------------------------------|
A|----------------------3----------------------3------|
E|---------------------------------------3------------|

E|---------------8--7-----5--3--1---------------------|
B|------------1--8--7--7--7--5--3--3--1h3p1...--0h1h3-|
G|-----0----0----7--8--8-----------2--0---------------|
D|---2----2-------------------------------------------|
A|-3----------------------------------3---------------|
E|----------------------------------------------------|

E|----0-----------------------------------------------|
B|------3--1--1---------------------------------------|
G|-0--------------------------------------------------|
D|----------------------------------------------------|
A|------3-----3---------------------------------------|
E|-3--------------------------------------------------|

[Segunda Parte]

E|----------0----------------------0-0----------------|
B|-1--1--1--1--3--------------1-1--1-1---3------------|
G|-0--0--0--0--4--4--0--0-----0-0--0-0---4--4--0--0---|
D|-2--2--2--------3--3--2-----2-2-----------3--3--2---|
A|----------------------------------------------------|
E|----------------------------------------------------|

E|-0--0----3--3----1--0--------0-------------3--5--7--|
B|-1--1----5--5----3--1--3--1---3----1--0----------0--|
G|-0--0----5--5----2--2--2--2---2--2----0----0--2-----|
D|------------5---------------------------------------|
A|----------------------------------------------------|
E|----------------------------------------------------| 

[Primeira Parte]

E|-8--7-----5--3--1----------------------------0------|
B|-8--7--7--7--5--3--3--1h3p1...--0h1h3-----3---------|
G|-9--8--8-----------2--0----------------0------------|
D|----------------------------------------------------|
A|----------------------3----------------------3------|
E|---------------------------------------3------------|

E|---------------8--7-----5--3--1---------------------|
B|------------1--8--7--7--7--5--3--3--1h3p1...--0h1h3-|
G|-----0----0----7--8--8-----------2--0---------------|
D|---2----2-------------------------------------------|
A|-3----------------------------------3---------------|
E|----------------------------------------------------|

E|----0-----------------------------------------------|
B|------3--1--1---------------------------------------|
G|-0--------------------------------------------------|
D|----------------------------------------------------|
A|------3-----3---------------------------------------|
E|-3--------------------------------------------------|
00:00 / 00:00
Outros vídeos desta música
Repetir
Outros vídeos desta música
Compositor não encontrado.
Colaboração e revisão:
  • Getúlio Vasconcelos
  • Márcio (Susuno)
  • David Rocha
174.348 exibições
    • ½ Tom
    • A
    • Bb
    • B
    • C
    • Db
    • D
    • Eb
    • E
    • F
    • F#
    • G
    • Ab
  • Adicionar à lista

    0 comentários

    Ver todos os comentários

    Entre para oCifra Club PRO

    Tenha acesso a benefícios exclusivos no App e no Site

    • Chega de anúncios

    • Prioridade de compra em lançamentos

    • Mais recursos no app do Afinador

    • Atendimento Prioritário

    • Descontos nos produtos Cifra Club

    • Ajude a produzir mais conteúdo

    00:00 / 00:00

    Cifra Club Pro

    Aproveite o Cifra Club com benefícios exclusivos e sem anúncios
    Cifra Club Pro
    Aproveite o Cifra Club com benefícios exclusivos e sem anúncios
    OK