Cifra Club

Aprenda

All My Fault

Fenix TX

Cifra: Principal (violão e guitarra)
tom: D
Intro
e|------------------------------------------------
B|------*Palm Mute*---------------*Palm Mute*-----
G|--7-77777777777777777777-7-7-77777777777777777--
D|--7-77777777777777777777-7-7-77777777777777777--
A|--5-55555555555555555555-5-5-55555555555555555--
E|------------------------------------------------

e|------------------------------------------------
B|------------------------------------------------
G|--*Palm Mute*-------*Palm Mute*-----------------
D|-5-5555555555--5/7-7777777777777----------------
A|-5-5555555555--5/7-7777777777777----------------
E|-3-3333333333--3/5-5555555555555----------------

Termina a Intro Aqui
e|----------
B|----------
G|-------7--
D|-7-7-7-7--
A|-7-7-7-5--
E|-5-5-5----


Versos

    D  D  G  A
e|------------------------------------------------
B|------------------------------------------------
G|--7--7------------------------------------------
D|--7--7--5--7------------------------------------
A|--5--5--5--7------------------------------------
E|--------3--5------------------------------------

Refrão 

Guitarra 1 
    B  G  D  A
e|------------------------------------------------
B|------------------------------------------------
G|--------7---------------------------------------
D|--9--5--7--7------------------------------------
A|--9--5--5--7------------------------------------
E|--7--3-----5------------------------------------

Guitarra 2 (Quando a Guitarra 1 tiver no D faça 
            o riff a seguir)

e|------------------------------------------------
B|------------------------------------------------
G|--7-7/9-9/11-11/12-12-12------------------------
D|--7-7/9-9/11-11/12-12-12--7---------------------
A|--5-5/7-7/9--9-/10-10-10--7---------------------
E|--------------------------5---------------------

Pós Refrao
e|------------------------------------------------
B|------------------------------------------------
G|--7-7-7-7-7--7-6------------7-6-----------------
D|--7-7-7-7-7--7-6-5-5-5-5-5--7-6-7-7-7-7-7-------
A|--5-5-5-5-5--5-4-5-5-3-5-5--5-4-7-7-7-7-7-------
E|-----------------3-3-3-3-3------5-5-5-5-5-------

e|------------------------------------------------
B|------------------------------------------------
G|--7-6-------------------------------------------
D|--7-6-9-9-9-9-9--5-5-5-5-5--7-7-7-7-7-----------
A|--5-4-9-9-9-9-9--5-5-5-5-5--7-7-7-7-7-----------
E|------7-7-7-7-7--3-3-3-3-3--5-5-5-5-5-----------

Versos (Palm Muted)
    D  D  G  A
e|------------------------------------------------
B|------------------------------------------------
G|--7--7------------------------------------------
D|--7--7--5--7------------------------------------
A|--5--5--5--7------------------------------------
E|--------3--5------------------------------------

Refrão 

Guitarra 1 
    B  G  D  A
e|------------------------------------------------
B|------------------------------------------------
G|--------7---------------------------------------
D|--9--5--7--7------------------------------------
A|--9--5--5--7------------------------------------
E|--7--3-----5------------------------------------

Guitarra 2 (Quando a Guitarra 1 tiver no D faça 
            o riff a seguir)

e|------------------------------------------------
B|------------------------------------------------
G|--7-7/9-9/11-11/12-12-12------------------------
D|--7-7/9-9/11-11/12-12-12--7---------------------
A|--5-5/7-7/9--9-/10-10-10--7---------------------
E|--------------------------5---------------------

Solo
e|------------------------------------------------
B|------------------------------------------------
G|--------11h12---11h12-14---12-11-12-------------
D|--12h14-----------------------------------------
A|------------------------------------------------
E|------------------------------------------------

e|------------------------------------------------
B|------------------------------------------------
G|--11h12h11--------------------------------------
D|------------14p12-11-12---14--12--14p12-11-12-11
A|------------------------------------------------
E|------------------------------------------------

e|------------------------------------------------
B|------------------------------------------------
G|------------12-11-12h14p12--14-12-14-12-11-12-11
D|---11h12h11-------------------------------------
A|-12---------------------------------------------
E|------------------------------------------------

e|------------------------------------------------
B|------------------------------------------------
G|------------------14---12------14-14-14-14-14-14
D|--14-12-11h12h11-----11--11-11------------------
A|------------------------------------------------
E|------------------------------------------------

e|-----------12-12--------------------------------
B|-14-14/15---------14h15p14-12-------------------
G|------------------------------14-14-12-14--12---
D|------------------------------------------------
A|------------------------------------------------
E|------------------------------------------------

e|------------------------------------------------
B|------------------------------------------------
G|-11h12p11---------------14p12-11-12--12/14------
D|----------12p11-12-12---------------------------
A|------------------------------------------------
E|------------------------------------------------

e|------------------------------------------------
B|------------------------------------------------
G|-14/16--14-12---14--12/11--12p11----------------
D|----------------------------------14--12--12~---
A|------------------------------------------------
E|------------------------------------------------

e|------------------------------------------------
B|------------------------------------------------
G|--x-7--x-7-x-x-x-7------------------------------
D|--x-7--x-7-x-x-x-7------------------------------
A|--x-5--x-5-x-x-x-5------------------------------
E|------------------------------------------------

Verso (Apenas o Baixo)

Refrão

Outro Riff - (Quando ele fala "And everything's 
              my fault..." 4x)

e|------------------------------------------------
B|------------------------------------------------
G|--7-7-7-7-7--7-6------------7-6-----------------
D|--7-7-7-7-7--7-6-5-5-5-5-5--7-6-7-7-7-7-7-------
A|--5-5-5-5-5--5-4-5-5-3-5-5--5-4-7-7-7-7-7-------
E|-----------------3-3-3-3-3------5-5-5-5-5-------

e|------------------------------------------------
B|------------------------------------------------
G|--7-6-------------------------------------------
D|--7-6-9-9-9-9-9--5-5-5-5-5--7-7-7-7-7-----------
A|--5-4-9-9-9-9-9--5-5-5-5-5--7-7-7-7-7-----------
E|------7-7-7-7-7--3-3-3-3-3--5-5-5-5-5-----------

Outro
e|------------------------------------------------
B|------------------------------------------------
G|------------------------------------------------
D|------------------------------------------------
A|-5-7-9-7-5--5-7-9-7-5--5-7-9-7-5-9-10-11-12-10-9
E|------------------------------------------------

e|------------------------------------------------
B|------------------------------------------------
G|-----------------7-7----------------------------
D|-----------------7-7----------------------------
A|-9h10p9h10p9-7---5-5----------------------------
E|------------------------------------------------
Composição de Damon Delapaz / William Salazar
Colaboração e revisão:
  • João Cavalcanti
11.500 exibições
    • ½ Tom
    • A
    • Bb
    • B
    • C
    • Db
    • D
    • Eb
    • E
    • F
    • F#
    • G
    • Ab
  • Adicionar à lista

    0 comentários

    Ver todos os comentários

    Conseguiu tocar?

    1 Tocaram 0 Ainda não

    Grave um vídeo tocando All My Fault e nos envie!

    00:00 / 00:00
    outros vídeos desta música
    repetir qualidade Automático
    Outros vídeos desta música
    00:00 / 00:00
    Automático

    Cifra Club Pro

    Aproveite o Cifra Club com benefícios exclusivos e sem anúncios
    Cifra Club Pro
    Aproveite o Cifra Club com benefícios exclusivos e sem anúncios
    OK