Threesome

Fenix TX

tom: D

Intro(1x): 
e|---------------------------------------------------------| 
B|---------------------------------------------------------| 
G|--7-7-x-7-7-x-7-7-x-7-7-x-4-4-x-4-4-x-4-4-x-4-4--x-x-x-x-| 
D|--7-7-x-7-7-x-7-7-x-7-7-x-4-4-x-4-4-x-4-4-x-4-4--x-x-x-x-| 
A|--5-5-x-5-5-x-5-5-x-5-5-x-2-2-x-2-2-x-2-2-x-2-2--x-x-x-x-| 
E|---------------------------------------------------------| 

e|-------------------------------------------------| 
B|-------------------------------------------------| 
G|--7-7-x-7-7-x-7-7-x-7-7-x-4-4-x-4-4-x-4-4-x-4~---| 
D|--7-7-x-7-7-x-7-7-x-7-7-x-4-4-x-4-4-x-4-4-x-4~---| 
A|--5-5-x-5-5-x-5-5-x-5-5-x-2-2-x-2-2-x-2-2-x-2~---| 
E|-------------------------------------------------| 

Verso(1x): 
e|----------------------------------------------------------| 
B|----------------------------------------------------------| 
G|-----------------------------------7-7-x-7-7-x-7-7-x-7~---| 
D|-5-5-5-5-5-5-5-5-5-5-5-5-5-5-5-5---7-7-x-7-7-x-7-7-x-7~---| 
A|-5-5-5-5-5-5-5-5-5-5-5-5-5-5-5-5---5-5-x-5-5-x-5-5-x-5~---| 
E|-3-3-3-3-3-3-3-3-3-3-3-3-3-3-3-3--------------------------| 

Refrão1(2x): 
e|------------------------------------------------------------------| 
B|------------------------------------------------------------------| 
G|-7-7-7-7-7-7-7-7-7-7-7-7-7-7-7-7----------------------------------| 
D|-7-7-7-7-7-7-7-7-7-7-7-7-7-7-7-7-9-9-9-9-9-9-9-9-9-9-9-9-9-9-9-9--| 
A|-5-5-5-5-5-5-5-5-5-5-5-5-5-5-5-5-9-9-9-9-9-9-9-9-9-9-9-9-9-9-9-9--| 
E|---------------------------------7-7-7-7-7-7-7-7-7-7-7-7-7-7-7-7--| 

e|----------------| 
B|----------------|  
G|-9-11-12-14-14--| 
D|-x-xx-xx-xx-xx--| 
A|-7--9-10-12-12--| 
E|----------------| 

Refrão2(1x): 
e|-----------------------------------------------------------------| 
B|-----------------------------------------------------------------| 
G|---------------------------------7-7-7-7-7-7-7-7-4-4-4-4-4-4-4-4-| 
D|-5-5-5-5-5-5-5-5-5-5-5-5-5-5-5-5-7-7-7-7-7-7-7-7-4-4-4-4-4-4-4-4-| 
A|-5-5-5-5-5-5-5-5-5-5-5-5-5-5-5-5-5-5-5-5-5-5-5-5-2-2-2-2-2-2-2-2-| 
E|-3-3-3-3-3-3-3-3-3-3-3-3-3-3-3-3---------------------------------| 

continuação: 
e|-------------------------------------| 
B|-------------------------------------| 
G|---------------------------------7~--| 
D|-5-5-5-5-5-5-5-5-7-7-7-7-7-7-7-7-7~--| 
A|-5-5-5-5-5-5-5-5-7-7-7-7-7-7-7-7-5~--| 
E|-3-3-3-3-3-3-3-3-5-5-5-5-5-5-5-5-----| 

Pré-verso/fim 
e|-----------------------| |----------| 
B|-----------------------| |----------| 
G|-7-7/-7-7/-7-7/-7-7/---| |--7-6-4~--| 
D|-7-7/-7-7/-7-7/-7-7/---| |--7-6-4~--| 
A|-5-5/-5-5/-5-5/-5-5/---| |--5-4-2~--| 
E|-----------------------| |----------| 
                             Abafado

Esta é a ordem: 
Intro 
Refrão1 
Verso 
Refrão2 
Pré-verso 
Intro 
Refrão2 
Verso 
Refrão2 
Fim 
Página 1 / 1

Letras e título
Acordes e artista

resetar configurações
OK