Cifra Club

Nada Além do Sangue

Fernandinho

Tab de baixo: Principal
[Intro]

G|-----------------------------------------------|
D|-----------------------------------------------|
A|-----------------------------------------------|
E|----6--3--6--3---------------------------------|

Teu sangue leva-me
G|-----------------------------------------------|
D|-----------------------------------------------| (2x)
A|----------------8--6--------8------------------|
E|----6--3--6--3--------6--3---------------------|

Que nos leva
G|-----------------------------------------------|
D|-----------------------------------------------| (2x)
A|----------8--6----8----------------------------|
E|----6--3-------6-------------------------------|

G|-----------------------------------------------|
D|-----------------------------------------------|
A|----------8------------------------------------|
E|----6--3---------------------------------------|

Tua cruz mostra
G|-----------------------------------------------|
D|-----------------------------------------------| (2x)
A|----------------8--6--------8------------------|
E|----6--3--6--3--------6--3---------------------|

Que nos leva
G|-----------------------------------------------|
D|-----------------------------------------------| (4x)
A|----------8--6----8----------------------------|
E|----6--3-------6-------------------------------|

Alvo mais que
G|-----------------------------------------------|
D|-----------------------------------------------| (3x)
A|-------8--6-------6-----8----------------------|
E|----6-------6--6-----6-----6-------------------|

Eu sou Livre
G|-----------------------------------------------|
D|-----------------------------------------------| (3x)
A|----------8--6----8----------------------------|
E|----6--3-------6-------------------------------|
00:00 / 00:00
Outros vídeos desta música
Repetir
Outros vídeos desta música
Composição de Fernandinho / Fernandinho SP
Colaboração e revisão:
  • Elton Drums
  • Thiago Mattos
32.381 exibições

0 comentários

Ver todos os comentários

Entre para oCifra Club PRO

Tenha acesso a benefícios exclusivos no App e no Site

  • Chega de anúncios

  • Prioridade de compra em lançamentos

  • Mais recursos no app do Afinador

  • Atendimento Prioritário

  • Descontos nos produtos Cifra Club

  • Ajude a produzir mais conteúdo

00:00 / 00:00

Cifra Club Pro

Aproveite o Cifra Club com benefícios exclusivos e sem anúncios
Cifra Club Pro
Aproveite o Cifra Club com benefícios exclusivos e sem anúncios
OK