Cifra Club

Aprenda

Ricardo Martins

Fernando Iglesias

Cifra: Principal (violão e guitarra)
tom: F
E|-------------------------------------------------------------|
B|--------6--5--3--------6--5--3--------6--5--3--------6--5--6-|
G|------5--------------5--------------5--------------5---------|
D|-------------------------------------------------------------|
A|-------------------------------------------------------------|
E|-------------------------------------------------------------|

E|-----------------------------6--6--5-5-|
B|-----------6--8--10--10--10------------|
G|------5--------------------------------|
D|---------------------------------------|
A|---------------------------------------|
E|---------------------------------------|

E|-----------------------------6--6--6-5-|
B|-----------6--8--10--10--10------------|
G|------5--------------------------------|
D|---------------------------------------|
A|---------------------------------------|
E|---------------------------------------|

E|------5--6--8--8--8--8--8--8--10--10---10--8--6--5--6--5---5------------------|
B|--------------------------------------------------------------8--6--8--8------|
G|------------------------------------------------------------------------------|
D|------------------------------------------------------------------------------|
A|------------------------------------------------------------------------------|
E|------------------------------------------------------------------------------|

E|-----5-----------------------5--0--------------0--------------|
B|--------8--6--8--8--------8--------6--6-----6-----8--6--------|
G|--------------------------------------------------------------|
D|--------------------------------------------------------------|
A|--------------------------------------------------------------|
E|--------------------------------------------------------------|

Composição de Volnei Almeida
Colaboração e revisão:
  • volnei almeida
175 exibições
    • ½ Tom
    • A
    • Bb
    • B
    • C
    • Db
    • D
    • Eb
    • E
    • F
    • F#
    • G
    • Ab
  • Adicionar à lista

    0 comentários

    Ver todos os comentários
    00:00 / 00:00
    Outros vídeos desta música
    Repetir Qualidade Automático
    Outros vídeos desta música
    00:00 / 00:00
    Automático

    Cifra Club Pro

    Aproveite o Cifra Club com benefícios exclusivos e sem anúncios
    Cifra Club Pro
    Aproveite o Cifra Club com benefícios exclusivos e sem anúncios
    OK