Cifra Club

Especial - Blues

Fernando Noronha

Cifra: Principal (violão e guitarra)
tom: Eb (forma dos acordes no tom de E) Afinação: Eb Ab Db Gb Bb Eb
E|-3/4-4-4---4-4-4---4-4-4------------0--------------|
B|-2/3-3-3---3-3-3---3-3-3---------------------------|
G|-3/4-4-4---4-4-4---4-4-4---4\2p0-------------------|
D|---------------------------------2-----------------|
A|---------------------------------------------------|
E|---------------------------------------------------|

E|-------------------0-------------------------------|
B|-------------------0-------------------------------|
G|-x-------------------------------------------------|
D|-x-------------------------------------------------|
A|-2-4---4-5---5-4-----------------------------------|
E|-0-0---0-0---0-0-----------------------------------|

E|-3/4-4-4---4-4-4---4-4-4------------0--------------|
B|-2/3-3-3---3-3-3---3-3-3---------------------------|
G|-3/4-4-4---4-4-4---4-4-4---4\2p0-------------------|
D|---------------------------------2-----------------|
A|---------------------------------------------------|
E|---------------------------------------------------|

E|---------------------------------------------------|
B|---------------------------------------------------|
G|-x-------------------------------------------------|
D|-x-------------------------------------------------|
A|-2-4---4-5---5-4-----------------------------------|
E|-0-0---0-0---0-0-----------------------------------|

E|-----3b| ¼-------------------------------------------
B|-0-2------x----------------------------------------|
G|----------x----------------------------------------|
D|----------2-4--4-5--5-4----------------------------|
A|----------0-0--0-0--0-0----------------------------|
E|---------------------------------------------------|

E|-----3b| ¼-----------------0-------------------------
B|-0-2------x--------------0-------------------------|
G|----------x----------------------------------------|
D|----------2-4--4-5--5-4----------------------------|
A|----------0-0--0-0--0-0----------------------------|
E|---------------------------------------------------|

E|-3/4-4-4---4-4-4---4-4-4------------0--------------|
B|-2/3-3-3---3-3-3---3-3-3---------------------------|
G|-3/4-4-4---4-4-4---4-4-4---4\2p0-------------------|
D|---------------------------------2-----------------|
A|---------------------------------------------------|
E|---------------------------------------------------|

E|------------------0--------------------------------|
B|------------------0--------------------------------|
G|-x-------------------------------------------------|
D|-x-------------------------------------------------|
A|-2-4---4-5---5-4-----------------------------------|
E|-0-0---0-0---0-0-----------------------------------|

E|-5/7-7-7---7-7-7---7-7-7---7-7-7-------------------|
B|-5/7-7-7---7-7-7---7-7-7---7-7-7-------------------|
G|-6/8-8-8---8-8-8---8-8-8---8-8-8-------------------|
D|---------------------------------------------------|
A|---------------------------------------------------|
E|---------------------------------------------------|

E|-3/5-5-5---5-5-5---5-5-5------------0--------------|
B|-3/5-5-5---5-5-5---5-5-5---------------------------|
G|-4/6-6-6---6-6-6---6-6-6---6\2p0-------------------|
D|----------------------------------2----------------|
A|---------------------------------------------------|
E|---------------------------------------------------|

E|--0-----0-3b| ¼-0-----------------0-0----------------
B|----3b| ¼---------3b¼-0-------------0----------------
G|----------------------4\2p0------------------------|
D|-----------------------------2---------------------|
A|---------------------------------------------------|
E|---------------------------------------------------|
           B7
E|---------------2---0----------------------|
B|---------------0---0----------------------|
G|----------2--------0----------------------|
D|----------1-------------------------------|
A|---0-1-2----2-----------------------------|
E|-3----------------------------------------|

E|---------------------------------------------------|
B|---------------------------------------------------|
G|---------------------------------------------------| (3x)
D|---------------------------------------------------|
A|-2----4----5----4----------------------------------|
E|-0--0-0--0-0--0-0--0-------------------------------|

E|---------------------------------------------------|
B|---------------------------------------------------|
G|---------------------------------------------------|
D|---------------------------------------------------|
A|---------------------------------------------------|
E|-0--0-2--2-3--3-4--4-------------------------------|

E|---------------------------------------------------|
B|---------------------------------------------------|
G|---------------------------------------------------| (2x)
D|-2----4----5----4----------------------------------|
A|-0--0-0--0-0--0-0--0-------------------------------|
E|---------------------------------------------------|

E|------------------------0--------------------------|
B|---------------------------------------------------|
G|----------------2--0h1-----------------------------|
D|----------------2----------------------------------|
A|-2----4----5---------------------------------------|
E|-0--0-0--0-0--0------------------------------------|

E|---------------------------------------------------|
B|-x--------------0----------------------------------|
G|-x--------------0----------------------------------|
D|-x-------------------------------------------------|
A|-2-4----5----4-------------------------------------|
E|-0-0--0-0--0-0-------------------------------------|

E|---------------------------------------------------|
B|---------------------------------------------------|
G|---------------------------------------------------|
D|-4--4-6----7----6----------------------------------|
A|-2--2-2--2-2--2-2--2-------------------------------|
E|---------------------------------------------------|

E|---------------------------------------------------|
B|---------------------------------------------------|
G|---------------------------------------------------|
D|-2--2-4----5----4-4--------------------------------|
A|-0--0-0--0-0--0-0-0--------------------------------|
E|---------------------------------------------------|

E|----0-----0-----0-----0----------------------------|
B|---------------------------------------------------|
G|---------------------------------------------------|
D|---------------------------------------------------|
A|------2/5---5-4---4-3---3-2------------------------|
E|-0-------------------------------------------------|

     F7(9) E7(9)
E|-8-----7----------------------------------|
B|-8-----7----------------------------------|
G|-8-----7----------------------------------|
D|-7-----6----------------------------------|
A|-8-----7----------------------------------|
E|------------------------------------------|
                                               \
E|-7/9-7--------------------------------------3------|
B|--------9p7---------------------------------3------|
G|------------9-8-7--0h1----------------------1------|
D|-----------------------2-0-------------------------|
A|---------------------------2-1-0h1p0-----2---------|
E|-------------------------------------3-0-----------|

Mais Lento:

E|---------------------------------------------------|
B|---------------------------------------------------|
G|---------------------------------------------------|
D|---------------------------------------------------|
A|-2--2-4--4-5--5-4--4---2--4-5--4-5-----------------|
E|-0--0-0--0-0--0-0--0---0--0-0--0-0-----------------|

E|---------------------------------------------------|
B|---------------------------------------------------|
G|---------------------------------------------------|
D|---------------------------------------------------|
A|-2--2-4--4-5---------------------------------------|
E|-0--0-0--0-0---------------------------------------|

Mais Acelerado:

E|---------------------------------------------------|
B|---------------------------------------------------|
G|---------------------------------------------------|
D|---------------------------------------------------|
A|-2----4----5----4----------------------------------|
E|-0--0-0--0-0--0-0--0-------------------------------|

E|-------------------------0-------------------------|
B|---------------------------------------------------|
G|-----------------2--0h1----------------------------|
D|-----------------2---------------------------------|
A|-2----4----5---------------------------------------|
E|-0--0-0--0-0--0------------------------------------|

E|---------------------------------------------------|
B|------------------------------------0--------------|
G|-x----------------------------------0--------------|
D|-x-------------------------------------------------|
A|-2-4----5----4----2----4----5----4-----------------|
E|-0-0--0-0--0-0--0-0--0-0--0-0--0-0-----------------|

E|---------------------------------------------------|
B|---------------------------------------------------|
G|---------------------------------------------------|
D|-2--2-4----5----4----------------------------------|
A|-0--0-0--0-0--0-0--0-------------------------------|
E|---------------------------------------------------|

E|---------------------------------------------------|
B|---------------------------------------------------|
G|---------------------------------------------------|
D|-2--2-4----5----4p2--------------------------------|
A|-0--0-0--0-0--0-0----------------------------------|
E|---------------------------------------------------|

E|---------------------------------------------------|
B|---------------------------------------------------|
G|------------------2----0h1-------------------------|
D|------------------2--2-----------------------------|
A|-2--2-4----5--4------------------------------------|
E|-0--0-0--0-0--0------------------------------------|

E|---------------------------------------------------|
B|---------------------------------------------------|
G|-x--------------0----------------------------------|
D|-x--------------0----------------------------------|
A|-2-4----5----4-------------------------------------|
E|-0-0--0-0--0-0-------------------------------------|

E|---------------------------------------------------|
B|---------------------------------------------------|
G|--------------------0------------------------------|
D|-4--4-6----4----6---0------------------------------|
A|-2--2-2--2-2--2-2----------------------------------|
E|---------------------------------------------------|

E|---------------------------------------------------|
B|---------------------------------------------------|
G|-------------------0-------------------------------|
D|-2--2-4----2----4--0-------------------------------|
A|-0--0-0--0-0--0-0----------------------------------|
E|---------------------------------------------------|

E|----0-----0-----0-----0----------------------------|
B|---------------------------------------------------|
G|---------------------------------------------------|
D|---------------------------------------------------|
A|------2/5---5-4---4-3---3-2------------------------|
E|-0-------------------------------------------------|
     F7(9) E7(9)
E|-8-----7-------------------------------------------|
B|-8-----7-------------------------------------------|
G|-8-----7-------------------------------------------|
D|-7-----6-------------------------------------------|
A|-8-----7-------------------------------------------|
E|---------------------------------------------------|

E|-7/9-7------------------12\------------------------|
B|--------9p7----------------------------------------|
G|------------9-8-7--8/13----------------------------|
D|---------------------------------------------------|
A|---------------------------------------------------|
E|---------------------------------------------------|

Shuffle:



Slow Blues Maior:

E|------------5--------------------8b9---------------|
B|--------5-7---7/10~-10~--10p8-10-------------------|
G|----5h6--------------------------------------------|
D|--7------------------------------------------------|
A|---------------------------------------------------|
E|---------------------------------------------------|

E|-6--5----------------------------------------------|
B|-6--5---5-4-5---5-5-5--5---------------------------|
G|-6--5---5-4-5---5-5-5--5---------------------------|
D|-5--4---4-3-4---4-4-4--4---------------------------|
A|-6--5---5-4-5---5-5-5--5---------------------------|
E|---------------------------------------------------|

E|---------------------------------------------------|
B|-------7\6\5-----5~--------6~--6~------------------|
G|-------6\5\4--------4~-----5~-----5~---------------|
D|--5/7--7\6\5-----------5~--6~--------6~------------|
A|--4/6---------4~-----------5~----------------------|
E|---------------------------------------------------|

E|-------------------------7---6---------------------|
B|--5--5-x--5-x--5---------7---6---------------------|
G|--4--4-x--4-x--4---------6---6---------------------|
D|--5--5-x--5-x--5--5-5-x--5---5---------------------|
A|--4--4------------4-4-x------6---------------------|
E|------------------5-5-x--5-------------------------|

E|--5--5-5--4---5--5-5-5------7----------------------|
B|--5--5-5--4---5--5-5-5------7----------------------|
G|--5--5-5--4---5--5-5-5--5/7------------------------|
D|--4--4-4--3---4--4-4-4-----------------------------|
A|--5--5-5--4---5--5-5-5-----------------------------|
E|---------------------------------------------------|

E|--5-4/5--4-5-5-5-5---------------------------------|
B|--5-4/5--4-5-5-5-5-------7\6\5---5~----------------|
G|--5-4/5--4-5-5-5-5-------6\5\4------4~-------------|
D|--4-3/4--3-4-4-4-4--5/7--7\6\5---------5~----------|
A|--5-4/5--4-5-5-5-5--4/6--------4-------------------|
E|---------------------------------------------------|

E|---------------------------------------------------|
B|--6~----6-6-6-----5----5--4-5--5---5---------------|
G|--5~----5-5-5-----4----4--3-4--4-4-4---------------|
D|--6~-6--6-6-6-----5-x--5--4-5--5-5-5---------------|
A|--5--5--5-5-5---4---x-----3-4----4---5-6-----------|
E|---------------------------------------------------|

E|-----7-7---7-7-7------7-7-7--7-7-6-----------------|
B|-----7-7---7-7-7------7-7-7--7-7-6-----------------|
G|-----7-7---7-7-7------7-7-7--7-7-6-----------------|
D|-----6-6---6-6-6------6-6-6--6-6-5-----------------|
A|--7--7-7---7-7-7---7--7-7-7--7-7-6-----------------|
E|---------------------------------------------------|

E|----5-5--5-5-5-----5-5-5--5-5-5--------------------|
B|----5-5--5-5-5-----5-5-5--5-5-5--------------------|
G|----5-5--5-5-5-----5-5-5--5-5-5--------------------|
D|----4-4--4-4-4-----4-4-4--4-4-4--------------------|
A|-5--5-5--5-5-5--5--5-5-5--5-5-5--------------------|
E|---------------------------------------------------|

E|----5-5------------5-5-5--5--5-5-5-----------------|
B|----5-5------------5-5-5--5--5-5-5-----------------|
G|----6-6------------5-5-5--5--5-5-5-----------------|
D|----7-7--7-5-------4-4-4--4--4-4-4-----------------|
A|-------------6--5--5-5-5--5--5-5-5-----------------|
E|-5-------------------------------------------------|

E|----5-5-5-5-------------------7--------------------|
B|----5-5-5-5---------------7-7-7--6--5--------------|
G|----6-6-6-6--5h6---5------7-7-7--5--4--------------|
D|----7-7-7-7------7-5------6-6-6--6--5--------------|
A|---------------------6-7----7-7--5--4--------------|
E|-5-------------------------------------------------|

E|---------------------------------------------------|
B|---------------5-----------------5-----------------|
G|-----5-7-5-7b9---7b9-9r7p5---5-7---5-7---5h6-5h6---|
D|-5/7-----------------------7-----------7---------7-|
A|---------------------------------------------------|
E|---------------------------------------------------|

E|-6-5~--------5-8b9-5-7---5-------------------------|
B|-6-5~--5-7b8-----------7---8-5-7---5---------------|
G|-6-5~----------------------------7---7/8\7p5-7---5-|
D|-5-4~------------------------------------------7---|
A|-6-5~----------------------------------------------|
E|---------------------------------------------------|

E|-----5-----5---------------------------------------|
B|------------------------------5--------------------|
G|-7b9---7b9----7b9-9r7p5---5-7---5b6r5--------------|
D|------------------------7-------------7p5----------|
A|------------------------------------------7-5-4\---|
E|---------------------------------------------------|

E|------------------------------------------7-7------|
B|-5/7--5/7--5/7--6--5-----5~---------------7-7------|
G|-4/6--4/6--4/6--5--4--------4~------------6-6------|
D|-5/7--5/7--5/7--6--5-----------5~----5----5-5------|
A|-4/6--4/6--4/6--5--4--4~-----------4-4-4-----------|
E|-----------------------------------5-5-5--5-5------|

E|-5~--------5-7b8-----------------------5-8-5-7---5-|
B|-5~--5-6-7-------7~-7\------4-5--5-6-7---------7---|
G|-5~---------------------x-x-4-5--------------------|
D|-4~---------------------x-x-3-4--------------------|
A|-5~---------------------x-x-4-5--------------------|
E|---------------------------------------------------|

E|------5-----------------------5--------------------|
B|-8b10---5-8p5--------------------------------------|
G|--------------7b9-9r7p5---5h7---5b6----------------|
D|------------------------7-----------7p5------------|
A|----------------------------------------7-5\3------|
E|----------------------------------------------5----|

E|---------------------------------------------------|
B|--------------------------------10--12b13r12p10----|
G|---------------------------9-11--------------------|
D|-5/7~-7-7-----7---7---9/11-------------------------|
A|----------7h9---9---9------------------------------|
E|---------------------------------------------------|

E|--------------5------------------------------------|
B|-------10-10----5-8p5---5-5---5--------------------|
G|-11-9-----------------7---5h6-5h6------------------|
D|----------------------------------7\---------------|
A|---------------------------------------------------|
E|--------------------------------------12\----------|

E|-----7--7/9-7/9-7/9-7-------------7-6-5~-----------|
B|-----7----------------9-7---------7-6-5~-----------|
G|-----7--------------------9-8-7~--7-6-5~-----------|
D|-----6----------------------------6-5-4~-----------|
A|-5-6-7----------------------------7-6-5~-----------|
E|---------------------------------------------------|

E|-------5-7b8-5-7---5~------------------------------|
B|-5-6-7-----------7----8-5-7---5--------------------|
G|----------------------------7---7/8\7p5---7/8\7p5--|
D|----------------------------------------7---------7|
A|---------------------------------------------------|
E|---------------------------------------------------|

E|-5--------------------5---8b9----------------------|
B|-5--5------5----5h7b8---5------7-6-5---------------|
G|-6--6--5h6---7~----------------6-5-4---------------|
D|-7--7--------------------------7-6-5---------------|
A|-------------------------------6-5-4---------------|
E|-5-------------------------------------------------|
                                     \/\/\/\/\/\/\/\/
E|---------------------------------12----------------|
B|-----5---7--7/8-7/8--7-7--5------12----------------|
G|-----5h6-7--8/9-8/9--7-7--5h6----12----------------|
D|-7-7-----------------------------11----------------|
A|---------------------------------12----------------|
E|---------------------------------------------------|

Slow Blues Menor:

E|-----------5-4-5-5-5--------------5-4-5-5-5--------|
B|-----------5-4-5-5-5--------------5-4-5-5-5--------|
G|-----------5-4-5-5-5--------------5-4-5-5-5--------|
D|-----5-7---7-6-7-7-7-------5-7----7-6-7-7-7--------|
A|-5h7-------------------5h7-------------------------|
E|---------5---------------------5-------------------|

E|------------4/5-4/5--4--5--5-5-----------5-4-5--5--|
B|------------5/6-5/6--5--6--6-6-----------5-4-5--5--|
G|------------6/7-6/7--6--7--7-7-----------5-4-5--5--|
D|-----5-7---------------------------5-7---7-6-7--7--|
A|-5h7-----5---------------------5h7-----------------|
E|---------------------------------------5-----------|

E|-----------7-6-7--7-7-------------4/5-4/5--4-5-----|
B|-----------8-7-8--8-8-------------5/6-5/6--5-6-----|
G|-----------9-8-9--9-9-------------6/7-6/7--6-7-----|
D|-----5-7-------------------5-7---------------------|
A|-5h7-----7-------------5h7-----5-------------------|
E|---------------------------------------------------|

E|----------------5-5-5-5-------5-5-5-5-5-----5-5-5--|
B|----------------5-5-5-5--x-x--6-6-6-6-6--x--5-5-5--|
G|-5-7/8\7p5------5-5-5-5--x-x--7-7-7-7-7--x--5-5-5--|
D|-----------7----7-7-7-7--x-x-------------x--7-7-7--|
A|---------------------------------------------------|
E|--------------5------------------------------------|

E|------------------------4/5-4/5-4--5---------------|
B|------------------------4/5-4/5-4--5---------------|
G|----------7b9r7p5-------4/5-4/5-4--5---------------|
D|------------------7-----6/7-6/7-6--7---------------|
A|-5-6-7-7-------------------------------------------|
E|---------------------5-----------------------------|

E|------5-------------------------------4/5-4/5-4--5-|
B|-8b10---5-8p5------------------x-x----4/5-4/5-4--5-|
G|--------------7b9-7p5---5-4----x-x----4/5-4/5-4--5-|
D|----------------------7-----7--x-x----6/7-6/7-6--7-|
A|---------------------------------------------------|
E|-----------------------------------5---------------|

E|-------7-------8-------------4/5--4/5--4--5--------|
B|-----7----8/10---10~-x-x-----5/6--5/6--5--6--------|
G|-7b9-----------------x-x-----6/7--6/7--6--7--------|
D|---------------------x-x---------------------------|
A|--------------------------5------------------------|
E|---------------------------------------------------|

E|--------5---8b9-5--------5-------------------------|
B|-5-8b10---5-------5-8b10---5-8---------------------|
G|-------------------------------8\7p5-7---5-7-5/7-5~|
D|---------------------------------------7-----------|
A|---------------------------------------------------|
E|---------------------------------------------------|

E|------4/5--4/5--4--5--5-5-5---------------7-6-7----|
B|------4/5--4/5--4--5--5-5-5---------------8-7-8----|
G|-5----4/5--4/5--4--5--5-5-5--7b8r7--------9-8-9-x--|
D|------6/7--6/7--6--7--7-7-7---------7-----------x--|
A|--------------------------------------7------------|
E|---5-----------------------------------------------|

E|------------4/5--4-5----------------5---5----------|
B|------------5/6--5-6----------------5---5----------|
G|-7b8r7------6/7--6-7--7b9-7-5b| ¼-----5-x-5--x-x-----
D|-------7------------------------7---7-x-7--x-x-----|
A|---------5----------------------------x----x-x-----|
E|----------------------------------5----------------|

E|---5---5---5-----------4-5-------------------------|
B|---6-x-6-x-6------x-x--4-5-------------------------|
G|---7-x-7-x-7------x-x--4-5-------------------------|
D|-----x---x--------x-x--6-7-------------------------|
A|-5-------------------------------------------------|
E|----------------5--------5-------------------------|

E|---8-5h7p5---5-------------------------------------|
B|-x---------7---8-5---------------------------------|
G|-x-----------------8\7p5-7---5\4-------------------|
D|-x-------------------------7-----7~\---------------|
A|---------------------------------------------------|
E|---------------------------------------------------|

Boogie Woogie:

E|--------5---7-5------3---5-3-----------------------|
B|--2/4-4-4-4-4-4--1/2-2-2-2-2--x-0------------------|
G|--2/4-4-4-4-4-4--1/2-2-2-2-2--x-0------------------|
D|--2/4-4---4------1/2---2------x-0------------------|
A|---------------------------------------------------|
E|---------------------------------------------------|

E|---------------------------------------------------|
B|--------------------------0--0-0-0-----------------|
G|-------------------x---x--2--2-2-2-----------------|
D|-----------x---x-2p0---x--1--1-1-1-----------------|
A|---x---x-2p0-4p0----------2--2-2-2-----------------|
E|-0-0-4p0-------------------------------------------|

E|---------------------------------------------------|
B|---------------------------------------------------|
G|-------------------x-------------------------------|
D|-----------x---x-2p0---x---x-----------------------|
A|---x---x-2p0-4p0-----4p0-2p0---x-------------------|
E|-0-0-4p0---------------------4p0-------------------|

E|---------------------------------------------------|
B|---------------------------------------------------|
G|-------------------x-------------------------------|
D|-----------x---x-2p0---x---x-----------------------|
A|---x---x-2p0-4p0-----4p0-2p0---x-------------------|
E|-0-0-4p0---------------------4p0-------------------|

E|---------------------------------------------------|
B|-------------------x-------------------------------|
G|-----------x---x-2p0---x---x-----------------------|
D|---x---x-2p0-4p0-----4p0-2p0---x-------------------|
A|-0-0-4p0---------------------4p0-------------------|
E|---------------------------------------------------|

E|---------------------------------------------------|
B|---------------------------------------------------|
G|-------------------x-------------------------------|
D|-----------x---x-2p0---x---x-----------------------|
A|---x---x-2p0-4p0-----4p0-2p0---x-------------------|
E|-0-0-4p0---------------------4p0-------------------|

E|---------------------------------------------------|
B|---------------------------------------------------|
G|---------------------------------------------------|
D|---------------------------------------------------|
A|---x----x----x----x---x-----x---x----x-------------|
E|-2p0--4p0--5p0--6p0-7p0---5p0-4p0--2p0-------------|

E|---------------------------------------------------|
B|--------------------------0--0-0-0-----------------|
G|-------------------x---x--2--2-2-2-----------------|
D|-----------x---x-2p0---x--1--1-1-1-----------------|
A|---x---x-2p0-4p0----------2--2-2-2-----------------|
E|-0-0-4p0-------------------------------------------|

E|---------------------------------------------------|
B|---------------------------------------------------|
G|---------------------------------------------------|
D|----x-----x-----x-----x------x-----x-----x-----x---|
A|----2-4p--2-----2-4p--2------2-4p--2-----2-4p--2---|
E|-0--0-0---0--0--0-0---0---0--0-0---0--0--0-0---0---|

E|---------------------------------------------------|
B|---------------------------------------------------|
G|---------------------------------------------------|
D|----x-----x-----x-----x------x-----x-----x-----x---|
A|----2-4p--2-----2-4p--2------2-4p--2-----2-4p--2---|
E|-0--0-0---0--0--0-0---0---0--0-0---0--0--0-0---0---|

E|---------------------------------------------------|
B|---------------------------------------------------|
G|----x-----x-----x-----x------x-----x-----x-----x---|
D|----2-4p--2-----2-4p--2------2-4p--2-----2-4p--2---|
A|-0--0-0---0--0--0-0---0---0--0-0---0--0--0-0---0---|
E|---------------------------------------------------|

E|---------------------------------------------------|
B|---------------------------------------------------|
G|---------------------------------------------------|
D|----x-----x-----x-----x------x-----x-----x-----x---|
A|----2-4p--2-----2-4p--2------2-4p--2-----2-4p--2---|
E|-0--0-0---0--0--0-0---0---0--0-0---0--0--0-0---0---|

E|---------------------------------------------------|
B|---------------------------------------------------|
G|----x-----x-----x-----x------x-----x-----x-----x---|
D|----4-6p--4-----4-6p--4------2-4p--2-----2-4p--2---|
A|-2--2-2---2--2--2-2---2---0--0-0---0--0--0-0---0---|
E|---------------------------------------------------|

E|---------------------------------------------------|
B|--------------------------0--0-0-0-----------------|
G|-------------------x---x--2--2-2-2-----------------|
D|-----------x---x-2p0---x--1--1-1-1-----------------|
A|---x---x-2p0-4p0----------2--2-2-2-----------------|
E|-0-0-4p0-------------------------------------------|

E|---------0--0-0-0------------1--1-1-1--------------|
B|---------0--0-0-0------------1--1-1-1--------------|
G|--1-1-1--1--1-1-1-----2-2-2--2--2-2-2--------------|
D|--2-2-2-----2-2-2-----3-3-3-----3-3-3--------------|
A|--2-2-2--------------------------------------------|
E|--0-0-0---------------1-1-1------------------------|

E|--------2--2-2-2-------------3--3-3-3--------------|
B|--------2--2-2-2-------------3--3-3-3--------------|
G|-3-3-3--3--3-3-3------4-4-4--4--4-4-4--------------|
D|-4-4-4-----4-4-4------5-5-5-----5-5-5--------------|
A|---------------------------------------------------|
E|-2-2-2----------------3-3-3------------------------|

E|--------4--4-4-4-------------5--5-5-5--------------|
B|--------4--4-4-4-------------5--5-5-5--------------|
G|-5-5-5--5--5-5-5------6-6-6--6--6-6-6--------------|
D|-6-6-6-----6-6-6------7-7-7-----7-7-7--------------|
A|---------------------------------------------------|
E|-4-4-4----------------5-5-5------------------------|

E|--------6--6-6-6-------------7--7-7-7--------------|
B|--------6--6-6-6-------------7--7-7-7--------------|
G|-7-7-7--7--7-7-7------8-8-8--8--8-8-8--------------|
D|-8-8-8-----8-8-8------9-9-9-----9-9-9--------------|
A|---------------------------------------------------|
E|-6-6-6----------------7-7-7------------------------|

E|---------------------------------------------------|
B|---------------------------------------------------|
G|-------------------x-------------------------------|
D|-----------x---x-2p0---x---x-----------------------|
A|---x---x-2p0-4p0-----4p0-2p0---x-------------------|
E|-0-0-4p0---------------------4p0-------------------|

E|---------------------------------------------------|
B|---------------------------------------------------|
G|-------------------x-------------------------------|
D|-----------x---x-2p0---x---x-----------------------|
A|---x---x-2p0-4p0-----4p0-2p0---x-------------------|
E|-0-0-4p0---------------------4p0-------------------|

E|---------------------------------------------------|
B|-------------------x-------------------------------|
G|-----------x---x-2p0---x---x-----------------------|
D|---x---x-2p0-4p0-----4p0-2p0---x-------------------|
A|-0-0-4p0---------------------4p0-------------------|
E|---------------------------------------------------|

E|---------------------------------------------------|
B|---------------------------------------------------|
G|-------------------x-------------------------------|
D|-----------x---x-2p0---x---x-----------------------|
A|---x---x-2p0-4p0-----4p0-2p0---x-------------------|
E|-0-0-4p0---------------------4p0-------------------|

E|---------------------------------------------------|
B|---------------------------------------------------|
G|---------------------------------------------------|
D|---------------------------------------------------|
A|---x----x----x----x---x-----x---x----x-------------|
E|-2p0--4p0--5p0--6p0-7p0---5p0-4p0--2p0-------------|

E|---------------------------------------------------|
B|--------------------------0--0-0-0-----------------|
G|-------------------x---x--2--2-2-2-----------------|
D|-----------x---x-2p0---x--1--1-1-1-----------------|
A|---x---x-2p0-4p0----------2--2-2-2-----------------|
E|-0-0-4p0-------------------------------------------|

E|---------------------------------------------------|
B|---------------------------------------------------|
G|---------------------------------------------------|
D|---x----------x-----0------x----------x-----0------|
A|-2-2-----x--2-2-4b| ¼-x----2-2-----x--2-2-4b¼-x------
E|-0-0-3h4-4--0-0----------0-0-3h4-4--0-0------------|

E|---------------------------------------------------|
B|---------------------------------------------------|
G|---------------------------------------------------|
D|---x----------x-----0------x----------x-----0------|
A|-2-2-----x--2-2-4b| ¼-x----2-2-----x--2-2-4b¼-x------
E|-0-0-3h4-4--0-0----------0-0-3h4-4--0-0------------|

E|---------------------------------------------------|
B|---------------------------------------------------|
G|---x----------x-----0------x----------x-----0------|
D|-2-2-----x--2-2-4b| ¼-x----2-2-----x--2-2-4b¼-x------
A|-0-0-3h4-4--0-0----------0-0-3h4-4--0-0------------|
E|---------------------------------------------------|

E|---------------------------------------------------|
B|---------------------------------------------------|
G|---------------------------------------------------|
D|---x----------x-----0------x----------x-----0------|
A|-2-2-----x--2-2-4b| ¼-x----2-2-----x--2-2-4b¼-x------
E|-0-0-3h4-4--0-0----------0-0-3h4-4--0-0------------|

E|---------2--2-2-2------------3--3-3-3--------------|
B|---------0--0-0-0------------2--2-2-2--------------|
G|--2-2-2--2--2-2-2-----2-2-2--2--2-2-2--------------|
D|--1-1-1-----1-1-1-----2-2-2------------------------|
A|--2-2-2---------------0-0-0------------------------|
E|---------------------------------------------------|

E|---3b4p0-------------------------------------------|
B|---------3p0-3b5r3-0-3p0---------------------------|
G|-------------------------3\2p0---2/3\2p0-----------|
D|-------------------------------2-------------------|
A|-2-------------------------------------------------|
E|-0-------------------------------------------------|

E|---------------------------7---------12------------|
B|---------------------------7-----------------------|
G|---------------------------7--7/13----0------------|
D|-2-0-2p0--------------2----6-----------------------|
A|---------2--0-0h1p0--------7-----------------------|
E|--------------------3------------------------------|

Tram:

E|-8---8---------------------8--8--------------------|
B|-8---8---x-x---------------8--8---x-x--------------|
G|-9---9---x-x---------------9--9---x-x--------------|
D|-10--10--x-x-----8----8----10-10--x-x-------8-10---|
A|--------------10---10-----------------10-10--------|
E|-------------------------8-------------------------|

E|-8---8---------------------8--8--------------------|
B|-8---8---x-x---------------8--8---x-x--------------|
G|-9---9---x-x---------------9--9---x-x--------------|
D|-10--10--x-x-------8----8--10-10--x-x---------8\---|
A|-------------10-10---10-----------------10-10------|
E|-8-------------------------------------------------|

E|-8-8-------------------8-8-------------------------|
B|-8-8--x-x--------------8-8--x-x--------------------|
G|-8-8--x-x--------------8-8--x-x--------------------|
D|-7-7--x-x--------------7-7--x-x--------------------|
A|-8------------6---6----8------------6-8------------|
E|----------8-8---8---8-----------8-8----------------|

E|-8---8----------------------8--8-------------------|
B|-8---8---x-x----------------8--8---x-x-------------|
G|-9---9---x-x----------------9--9---x-x-------------|
D|-10--10--x-x-------8----8-x-10-10--x-x---------8b| ¼-
A|-------------10-10---10---x--------------10-10-----|
E|-8-------------------------------------------------|

E|-10--10--------10--10------10-10------8-8-----8-8-8|
B|-10--10-x-x-x--10--10-x-x--10-10-x-x--8-8-x-x-8-8-8|
G|-10--10-x-x-x--10--10-x-x--10-10-x-x--8-8-x-x-8-8-8|
D|-9---9--x-x-x--9---9--x-x--9--9--x-x--7-7-x-x-7-7-7|
A|-10--10--------10--10------10-10------8-8-----8-8-8|
E|---------------------------------------------------|

E|-8---8--------------------------8--8---------------|
B|-8---8--x-x---------------------8--8---x-x---------|
G|-9---9--x-x---------------------9--9---x-x---------|
D|-10--10-x-x-------8-8--8-8------10-10--x-x-------8\|
A|------------10-10--------------------------10-10---|
E|-8--------------------------8-8--------------------|

E|-8--8----------------------8--8--------------------|
B|-8--8--x-x-----------------8--8--x-x---------------|
G|-9--9--x-x-----------------9--9--x-x---------------|
D|-10-10-x-x-------8----8----10-10-x-x-------8-10----|
A|-----------10-10---10---10-----------10-10---------|
E|-8-------------------------------------------------|

E|-8--8----------------------8--8--------------------|
B|-8--8--x-x-----------------8--8--x-x---------------|
G|-9--9--x-x-----------------9--9--x-x---------------|
D|-10-10-x-x-------8----8----10-10-x-x-------8~\-----|
A|-----------10-10---10---10-----------10-10---------|
E|-8-------------------------------------------------|

E|-8-8-------------------8-8-------------------------|
B|-8-8--x-x--------------8-8--x-x--------------------|
G|-8-8--x-x--------------8-8--x-x--------------------|
D|-7-7--x-x--------------7-7--x-x--------------------|
A|-8------------6---6----8------------6-8/10---------|
E|----------8-8---8---8-----------8-8----------------|

E|-8---8--------------------8--8---------------------|
B|-8---8---x-x--------------8--8---x-x---------------|
G|-9---9---x-x--------------9--9---x-x---------------|
D|-10--10--x-x------8-8--x--10-10--x-x---------8b| ¼---
A|--------------10-------x--------------10-10--------|
E|-8-------------------------------------------------|

E|-10--10--------10--10------10-10------8-8-------8-8|
B|-10--10-x-x-x--10--10-x-x--10-10-x-x--8-8-x-x---8-8|
G|-10--10-x-x-x--10--10-x-x--10-10-x-x--8-8-x-x---8-8|
D|-9---9--x-x-x--9---9--x-x--9--9--x-x--7-7-x-x---7-7|
A|-10--10--------10--10------10-10------8-8-----8-8-8|
E|---------------------------------------------------|

E|-8--8----------------------------------------------|
B|-8--8--x-x-----------------------------------------|
G|-9--9--x-x-----------------------------------------|
D|-10-10-x-x-------8-8-8-8----x-x--------------------|
A|-----------10-10---------10-x-x--------------------|
E|-8-----------------------10------------------------|

E|-10-10-10-10--10-10-10-----------------------------|
B|-10-10-10-10--10-10-10--x-x------------------------|
G|-10-10-10-10--10-10-10--x-x------------------------|
D|-9--9--9--9---9--9--9---x-x------------------------|
A|-10-10-10-10--10-10-10-----------------------------|
E|---------------------------------------------------|

E|-8--8----------------------------------------------|
B|-8--8--x-x-------------------8-------------x-x-----|
G|-9--9--x-x--10b12-10p8-------8h10p8--------x-x-----|
D|-10-10-x-x-------------10-10--------10-10--x-x-----|
A|---------------------------------------------------|
E|-8-------------------------------------------------|

E|------------------------8--------------------------|
B|------------------------8--x-x-------8--10-10p8----|
G|------------------------9--x-x-------8--10-10p8----|
D|-------8-10-8h10p8------10-x-x------------------10-|
A|-10-10-------------10----------10-10---------------|
E|----------------------8----------------------------|

E|-------8-------------------------------------------|
B|---------8--11p8-----------------------------------|
G|-10b12-----------10b12-12r10p8---------------------|
D|-------------------------------10-10-8h10p8--------|
A|--------------------------------------------10-----|
E|---------------------------------------------------|

E|---8-------------------8-8-------------------------|
B|---8--x-x--------------8-8--x-x--------------------|
G|---8--x-x--------------8-8--x-x---------0----------|
D|---7--x-x--------------7-7--x-x--------------------|
A|-8------------6---6----8------------6-8------------|
E|----------8-8---8---8-----------8-8----------------|

E|-8---8--------------------8--8---------------------|
B|-8---8--x-x---------------8--8---x-x---------------|
G|-9---9--x-x-----------p0--9--9---x-x---------------|
D|-10--10-x-x----8----8-p0--10-10--x-x---------8b| ¼---
A|------------10---10-------------------10-10--------|
E|-8-------------------------------------------------|

E|-10--10--------10--10------10-10------8-8-------8-8|
B|-10--10-x-x-x--10--10-x-x--10-10-x-x--8-8-x-x-x-8-8|
G|-10--10-x-x-x--10--10-x-x--10-10-x-x--8-8-x-x-x-8-8|
D|-9---9--x-x-x--9---9--x-x--9--9--x-x--7-7-x-x-x-7-7|
A|-10--10--------10--10------10-10------8-8-------8-8|
E|---------------------------------------------------|

E|-8---8-------------------------------------11------|
B|-8---8-11-8-------------------8------------11------|
G|-9----------10b12-12r10-8-----8h10-8-------8-------|
D|-10-----------------------10---------10\-----------|
A|-------------------------------------------10------|
E|-8-----------------------------------------8-------|

Jump Blues:

E|8-9------8-9---------------8\--8--8--8-8-----7\----
B|----10-------10\7------5-7-----8--8--8-8-----7\----|
G|-------9-----------5h6---------8--8--8-8--x--7\----|
D|-------------------------------7--7--7-7--x--6\----|
A|-------------------------------8--8--8-8--x--7\----|
E|---------------------------------------------------|

E|-------5-5-x--5-x--5-x--5-x--5-x-------------------|
B|-------5-5-x--5-x--5-x--5-x--5-x--5-8-7-5----------|
G5h6----6-6-x--6-x--6-x--6-x--6-x-----------7-5h6---
D|----7--7-----------------------------------------7-|
A|---------------------------------------------------|
E|---------------------------------------------------|

E|5--5--5\-------5-7/12--12-12--12-12--12-12--12-12--
B|7--7--7\---5h7-------------------------------------
G|6--6--6\-------------------------------------------
D|7--7--7\-------------------------------------------
A|---------------------------------------------------|
E|---------------------------------------------------|

E|8-10/11\10p8-10-8b---------------------------------
B|-------------------10p8-10--8-----------5----------|
G|------------------------------9/7p5-7b9----7---5-6-|
D|---------------------------------------------7-----|
A|---------------------------------------------------|
E|---------------------------------------------------|

E|---------------------------------------------------|
B|--------5------5------5------5---------------------|
G|----7b9----7b9----7b9----7b9---7---5--6-5--6-------|
D7p5------------------------------7-----------7-----
A|---------------------------------------------------|
E|---------------------------------------------------|

E|--------5------------------------------------------|
B|------5---8-5-----------8--8--0--------------------|
G|--5h6---------7-5h6-----7--7--0--------------------|
D|7--------------------0--6--6--0--------------------
A|------------------------7--7-----------------------|
E|---------------------------------------------------|

E|---------------------------------------------------|
B|7--7-x--7-x--7-x--7-x--7-x--7-x--7-7-x-------------
G|6--6-x--6-x--6-x--6-x--6-x--6-x--6-6-x-------------
D|7--7-x--7-x--7-x--7-x--7-x--7-x--7-7-x-------------
A|---------------------------------------------------|
E|---------------------------------------------------|

E|---------------------------------------------------|
B|7--7-x--7-x--7-x--7-x--7-x--7-x--0--6--------------
G|6--6-x--6-x--6-x--6-x--6-x--6-x--0--6--------------
D|7--7-x--7-x--7-x--7-x--7-x--7-x--0--5--------------
A|------------------------------------6--------------|
E|---------------------------------------------------|

E|---------------------------------------------------|
B|5--5-x--5-x--5-x--5-x--5-x--5-x--5-5-0-------------
G|5--5-x--5-x--5-x--5-x--5-x--5-x--5-5-0-------------
D|4--4-x--4-x--4-x--4-x--4-x--4-x--4-4-0-------------
A|5--5-x--5-x--5-x--5-x--5-x--5-x--5-5---------------
E|---------------------------------------------------|

E|---------------------------------------------------|
B|7--7-x--7-x--7-x--7-x--7-x--7-x--7-7-x-------------
G|6--6-x--6-x--6-x--6-x--6-x--6-x--6-6-x-------------
D|7--7-x--7-x--7-x--7-x--7-x--7-x--7-7-x-------------
A|---------------------------------------------------|
E|---------------------------------------------------|

E|---------------------------------------------------|
B|7--7-x--7-x--7-x--x--8--8-x--7--7-x----------------
G|7--7-x--7-x--7-x--x--8--8-x--7--7-x--5h6-----------
D|6--6-x--6-x--6-x--x--7--7-x--6--6-x----------------
A|7--7-x--7-x--7-x--x--8--8-x--7--7-x----------------
E|---------------------------------------------------|

E|------5--------------------------------------------|
B|----5----8-5-----------8--8-8-x--------------------|
G5h6----------7-5h6-----7--7-7-x--------------------
D|-------------------0---6--6-6-x--------------------|
A|---------------------7-----------------------------|
E|---------------------------------------------------|

E|---------------------------------------------------|
B|7--7-x--7-x--7-x--7-x--7-x--7-x--7-7-x-------------
G|6--6-x--6-x--6-x--6-x--6-x--6-x--6-6-x-------------
D|7--7-x--7-x--7-x--7-x--7-x--7-x--7-7-x-------------
A|---------------------------------------------------|
E|---------------------------------------------------|

E|---------------------------------------------------|
B|7--7-x--7-x--7-x--7-x--7-x--7-x--0--6--------------
G|6--6-x--6-x--6-x--6-x--6-x--6-x--0--6--------------
D|7--7-x--7-x--7-x--7-x--7-x--7-x--0--5--------------
A|------------------------------------6--------------|
E|---------------------------------------------------|

E|------------------5-5--8----5---5-5----------------|
B|5--5-x--5-x--5-x--5-5--5----5---5-5----------------
G|5--5-x--5-x--5-x--5-5--5----5---5-5----------------
D|4--4-x--4-x--4-x--4-x--4----4---4-4----------------
A|5--5-x--5-x--5-x--5-x--5----5---5-5----------------
E|---------------------------------------------------|

E|---------------------------------------------------|
B|7--7-x--7-x--7-x--7-x--7-x--7-x--7-7-x-------------
G|6--6-x--6-x--6-x--6-x--6-x--6-x--6-6-x-------------
D|7--7-x--7-x--7-x--7-x--7-x--7-x--7-7-x-------------
A|---------------------------------------------------|
E|---------------------------------------------------|

E|---------------------------------------------------|
B|7--7-x--7-x--7-x--x--8--8-x--7--7-x----------------
G|7--7-x--7-x--7-x--x--8--8-x--7--7-x--5h6--x--------
D|6--6-x--6-x--6-x--x--7--7-x--6--6-x----------------
A|7--7-x--7-x--7-x--x--8--8-x--7--7-x----------------
E|---------------------------------------------------|

E|----5----------------------------------------------|
B|--5---8-5-----------8--8-8-x-----------------------|
G|6---------7-5h6-----7--7-7-x-----------------------
D|----------------0---6--6-6-x-----------------------|
A|------------------7--------------------------------|
E|---------------------------------------------------|

E|---------------------------------------------------|
B|7b8--7-b8r7p5----------5-----5-----5-----5---------
G|--------------7-5--7b9---7b9---7b9---7b9-----------|
D|---------------------------------------------------|
A|---------------------------------------------------|
E|---------------------------------------------------|

E|---------------------------------------------------|
B|7b8--7-b8r7p5----------5-----5-----5---------------
G|--------------7-5--7b9---7b9---7b9---7b9-----------|
D|---------------------------------------------------|
A|---------------------------------------------------|
E|---------------------------------------------------|

E|----5-7-8--8-x------5-7-8--5-7---5--5--------------|
B5h7-------------5h7------------7------8-5-----5----
G|------------------------------------------7b9---7--|
D|---------------------------------------------------|
A|---------------------------------------------------|
E|---------------------------------------------------|

E|---------------------------------------------------|
B|-----------5\4--5----------------------------------|
G|--5-6--5h6---------------5-6p5h6-----5-6-7b8r7p5---|
D|7-------------------7--7---------7-x-------------7-
A|---------------------------------------------------|
E|---------------------------------------------------|

E|--------------------------------12-----------------|
B|--------------/8-7--/7-6--6-5---12-----------------|
G|--5-6---------/8-7--/6-5--5-4---12-----------------|
D|7-----7-5-7\--/7-6--/7-6--6-5---11-----------------
A|--------------/8-7--/6-5--5-4---12-----------------|
E|---------------------------------------------------|

Turn Arround:

(Exemplo 1)

E|----0-------0-------0--------------------2---------|
B|-----------------------------------------0---------|
G|-------------------------------------2---2---------|
D|---------------------------------------------------|
A|5-----5-4-----4-3-----3-2-----0-1-2---2-----------
E|-----------------------------3---------------------|

E|---0--------0-------0--------------------------2---|
B|3------3-2-----2-1-----1-----------------------0---
G|-------------------------0h1p0h1-0---------2---2---|
D|---------------------------------------------------|
A|-------------------------------------0-1-2---2-----|
E|-----------------------------------3---------------|

(Exemplo 2)

E|----12-------12-------12-------------------------14|
B|---------------------------------------------------|
G|-------------------------------------------14----14|
D|12----12-11----11-10----10-9----------------------
A|----------------------------------12-13-14----14---|
E|------------------------------/15------------------|

(Exemplo 3)

E|---------------------------------------------------|
B|----17-------17-------17--------17-----------------|
G|------------------------------------------------14-|
D|---------------------------------------------------|
A|-17----17-16----16-15----15-14---------12-13-14----|
E|-----------------------------------15\-------------|

E|---14\---------------------------------------------|
B|---------------------------------------------------|
G|---14\---------------------------------------------|
D|---------------------------------------------------|
A|14-------------------------------------------------
E|---------------------------------------------------|

(Exemplo 4)

E|---------------------------------------------------|
B|---3-----2-----1-----------------------------------|
G|-4---4-3---3-2---2-0h1-----------------------------|
D|-----------------------2---0------------2----------|
A|-------------------------2---2-1-0-----------------|
E|-----------------------------------3b-0------------|


T-Bone Walker:

E|12--14-12--10--12-10--8--10-8--7\------------------
B|12--12-12--10--10-10--8--8--8--7\----6--5~---------
G|12--12-12--10--10-10--8--8--8--7\----5--4~---------
D|11---------9----------7--------6\----6--5~---------
A|12---------10---------8--------7\----5--4~---------
E|---------------------------------------------------|

E|---------------------------------------6--5--------|
B|----------5----------------5-----------6--5--------|
G|----5-7b9---7b9--7p5---5-7---5b6-------6--5--------|
D|5/7------------------7-----------7p5\--5--4--------
A|---------------------------------------6--5--------|
E|---------------------------------------------------|

E|----8--8-5--5--------------------------------------|
B|--x-----------8--8-5--5----------------------------|
G|x-----------------------7--7-5--5-7b8r7b8r7b8r7p5--
D|---------------------------------------------------|
A|---------------------------------------------------|
E|---------------------------------------------------|

E|---------------------------------------------------|
B|----------5----------------------------------------|
G|7---5-7b8---7b8-b8r7p5------5h6-7--5h6-------------
D|--7--------------------7--7-5---7--5---7p5---5-6-7-|
A|-------------------------------------------7-------|
E|---------------------------------------------------|

E|----------------5-7b9------------------------------|
B|--5--4-5--5-6-7-------7~--4/5--4/5-4/5--4--5-------|
G|--5--4-5------------------4/5--4/5-4/5--4--5-------|
D|--4--3-4------------------3/4--3/4-3/4--3--4-------|
A|5-5--4-5------------------4/5--4/5-4/5--4--5-------
E|---------------------------------------------------|

E|------5-7b9-5-7---5~-------------------------------|
B|5-6-7-----------7-----8-5-7---5~----------4/5-4/5--
G|----------------------------7-----5-6-7-8----------|
D|---------------------------------------------------|
A|---------------------------------------------------|
E|---------------------------------------------------|

E|---------------------------------------------------|
B|----8---------------------------------------7~-----|
G|7-----7/8\7p5-------------------------------7~-----
D|--7-----------7-5h7p5h7p5h7p5h7p5h7---------6~-----|
A|--------------------------------------5--6--7~-----|
E|---------------------------------------------------|

E|---------------------------------------------------|
B|--------------------------------------7--6--5~-----|
G|----5------7--------9------7------5\--7--6--5~-----|
D|--6------8-------10------8------6-----6--5--4~-----|
A|7------9------11-------9------7-------7--6--5~-----
E|---------------------------------------------------|

E|------5-8-5-7---5~---------------------------------|
B|5-6-7---------7----8-5-7---5~-----------8------5b7r
G|-------------------------7----7/8\7p5-----7b-7-----|
D|--------------------------------------7------------|
A|---------------------------------------------------|
E|---------------------------------------------------|

E|--------------------5---8b10-----------------------|
B|---------5-----5h7b---5-------7--6--5--------------|
G|-----5h6---7~-----------------6--5--4--------------|
D|7~-7--------------------------7--6--5--------------
A|------------------------------6--5--4--------------|
E|---------------------------------------------------|

E|-------------------------------12\-----------------|
B|--5---7--6/8--6/8--7--7--5-----12\-----------------|
G|--5h6-7--7/9--7/9--7--7--5h6/--12\-----------------|
D|7------------------------5-----11\-----------------
A|-------------------------------12\-----------------|
E|---------------------------------------------------|

B.B. King:

E|10-------------------------10----------------------
B|----10-------------------------10------------------|
G|--------10-9-----------------------10-9------------|
D|-------------12~------------------------12~--------|
A|---------------------------------------------------|
E|---------------------------------------------------|

E|-------------------------------15-17---------------|
B|----15~-15h17-------15--17b19--------17b19-15-17---|
G|-16-------------/16------------------------------16|
D|---------------------------------------------------|
A|---------------------------------------------------|
E|---------------------------------------------------|

E|------15b17--15------------------------------------|
B|15~--------------18b20--18~b20------15~--15\-------
G|--------------------------------/16------16\-------|
D|---------------------------------------------------|
A|---------------------------------------------------|
E|---------------------------------------------------|

E|---------------------------------------------------|
B|10b12--10------------------------------------------
G|----------12~-10-9----------------------------14---|
D|-------------------12~-10-9~---------12-14/16------|
A|------------------------------12h14~---------------|
E|---------------------------------------------------|

E|---------------------------10---------10-----------|
B|------------------------10----13b15~-----10-13-10--|
G|---------------------11----------------------------|
D|16\15p12----12~---12-------------------------------
A|---------14----------------------------------------|
E|---------------------------------------------------|

E|--------------------10-----------------------------|
B|---10------------------10--------------------------|
G|12----10h11---------------10-9---------------------
D|------------12-----------------12-10---------------|
A|---------------12\-------------------12\10-8-------|
E|---------------------------------------------10----|

E|--------------------17b21-17-15--------------------|
B|--------------15~\--------------17b19-15-17----15~-|
G|----------/16-------------------------------16-----|
D|10/12~\--------------------------------------------
A|---------------------------------------------------|
E|---------------------------------------------------|

E|--------------------------------15-17--------------|
B|17b19-------15-15----15~-17b19--------17b19-17-19--
G|--------/16-------16-------------------------------|
D|---------------------------------------------------|
A|---------------------------------------------------|
E|---------------------------------------------------|

E|----------15b17r-----------------------------------|
B|---15~\----------15~-------------------------------|
G|16-------------------15\12-10h11-------------------
D|---------------------------------12----------------|
A|------------------------------------12\------------|
E|---------------------------------------------------|

Albert King:

E|------8b9-10-10b12-10b12-10b12-8-10b12-------------|
B|10-10----------------------------------------------
G|---------------------------------------------------|
D|---------------------------------------------------|
A|---------------------------------------------------|
E|---------------------------------------------------|

E|------8-10b12-b12-b12-b12-b12r11-b11r10-9b10r-8----|
B|10-10-------------------------------------------10-
G|---------------------------------------------------|
D|---------------------------------------------------|
A|---------------------------------------------------|
E|---------------------------------------------------|

E|8b9-b11r10------8b9--------------------------------
B|-----------10~------10---8~b10---------------------|
G|-----------------------9---------------------------|
D|---------------------------------------------------|
A|---------------------------------------------------|
E|---------------------------------------------------|

E|-------8b9--10-------------8b9-10-10b12--10b12-----|
B|10-10----------10~---10-10-------------------------
G|---------------------------------------------------|
D|---------------------------------------------------|
A|---------------------------------------------------|
E|---------------------------------------------------|

E|------8-10b12r10-----------------------------------|
B|10-10------------10~-------------------------------
G|---------------------------------------------------|
D|---------------------------------------------------|
A|---------------------------------------------------|
E|---------------------------------------------------|

Jimi Hendrix:

E|-----5---------------------------------------------|
B|8b10---5-8-5---------------------------------------
G|-------------7b8-7-5b6-----------------------------|
D|-----------------------7-5---------------------5-7-|
A|---------------------------7\6-5\3-3-5---3-5/7-----|
E|---------------------------------------5-----------|

E|---------------------------------------------------|
B|---------------------------------------------------|
G|5-7-7b9-7-5/7-5b6----------------------------------
D|--------------------7-5-7~\------------------------|
A|---------------------------------------------------|
E|---------------------------------------------------|

E|--------------------------------------------5-8b10-|
B|8b10-----8b10-----8b10-----8b10-----------5--------
G|-----8-5------8-5------8-5------8p7-5-7b9----------|
D|---------------------------------------------------|
A|---------------------------------------------------|
E|---------------------------------------------------|

E|--------------5------------------------------------|
B|b10r8-5-----5---8---------------5------------------
G|--------7b9-------7b8r7p5h7-5-7---5-7---5b6-5b6----|
D|--------------------------------------7---------7\-|
A|---------------------------------------------------|
E|---------------------------------------------------|

E|------------13--13-13-x-----------------10-10-10-x-|
B|----1--1/13-13--13-13-x-----------------10-10-10-x-|
G|----2--2/14-14--14-14-x-----------------11-11-11-x-| (4x)
D|5-4-3--3/15-15--15-15-x------4-5/12-12--12-12-12-x-
A|-------------------------3-4-5---------------------|
E|---------------------------------------------------|

E|----1-------------1-------------1-------------1----|
B|----1-------------1-------------1-------------1----|
G|----2-------------2-------------2-------------2----|
D|5-4-3------4--5-4-3------4--5-4-3------4--5-4-3----
A|-------3-4-5---------3-4-5---------3-4-5---------3-|
E|---------------------------------------------------|

E|---------------------------------------------------|
B|---------------------------------------------------|
G|--5------------------------------------------------|
D|--4------------------------------------------------|
A|4-5------------------------------------------------
E|---------------------------------------------------|

E|---------------------------------------------------|
B|10--10-10-9--9-9-8-8-8-x-x-------------------------
G|-----------------------x-x-5--5-5-7--7-7-----------|
D|7---7--7--6--6-6-5-5-5-x-x---------------7-7-7-x-x-
A|---------------------------3--3-3-5--5-5-----------|
E|-----------------------------------------5-5-5-x-x-|

E|---------------------------------------------------|
B|---------------------------------------------------|
G|---------------------------------------------------|
D|---------------------------------------------------|
A|------------------------3~-5p3---------------------|
E|5-5-3-5-x-5-3-5-x-5-3-5--------5-5-3-5-x-5-3-5-x-5-

E|---------------------------------------------------|
B|---------------------------------------------------|
G|-------------------------5~-----7b8-5-7---5~-------|
D|---------------------5h7----7-5---------7-----7p5--|
A|----3-3-5-3----3-5/7------------------------------7|
E|3-5---------5~-------------------------------------

E|---------------------------------------------------|
B|-----------------------------8b10------------------|
G|-----------5-7b9r7p5-7-5----------8-7-5-7---5-7b8--|
D|5-5-7-5h7~---------------7-5--------------7--------
A|---------------------------------------------------|
E|---------------------------------------------------|

E|-------------------5--------5-----------5----------|
B|-----------------5---5-8b10---8p5-----5---8p5------|
G|5-7~--5---5-7b9-------------------7b9---------7b9-7
D|--------7------------------------------------------|
A|---------------------------------------------------|
E|---------------------------------------------------|

E|---------------------------------------------------|
B|---------------------------------------------------|
G|5---5--7-5h7-5~--------------------------7-5-------
D|--7-------------7p5-------7--7-5--7--5-x-----7-5---|
A|--------------------7------------------------------|
E|----------------------5-x--------------------------|

E|--------------------8-8-8-8------------------------|
B|--------------------8-8-8-8------------------------|
G|---------------------------------------------------|
D|----7--7-5--7--x--x--------------7--7-5--5-7--5-5--|
A|---------------------------------------------------|
E|5-x--------------------------5-x-------------------

E|---------------------------------------------------|
B|---------------------------------------------------|
G|7-5------------------------------------------------
D|----7-5------7--7-5--5-7\--------------------------|
A|---------------------------------------------------|
E|---------5-x---------------------------------------|

E|------------5------------------5--------8------8---|
B|8b10--8b10----8-------------5-----8/10-----10~-----
G|----------------7b8r7p5-7b9------------------------|
D|---------------------------------------------------|
A|---------------------------------------------------|
E|---------------------------------------------------|

E|10b12--8b10--10----8-10-8b10r8---------------------
B|----------------10-------------10~-\8--------------|
G|---------------------------------------\7--5--7b9--|
D|---------------------------------------------------|
A|---------------------------------------------------|
E|---------------------------------------------------|

E|--5------------------------------------------------|
B|5---8p5---------------5----------------------------
G|--------7b8r7p5---5h7-5h7p5-7p5---5b--7b--7p5------|
D|----------------7---------------7-------------7----|
A|---------------------------------------------------|
E|---------------------------------------------------|

E|---------------------------------------------------|
B|---------------------------------------------------|
G|---------------------------------------------------|
D|---------------------------------------------------|
A|---5--------3-5p3----------------------------------|
E|5-----3--5--------5-3-5~-5~--3-3-5-5~--3-5-3-5....-

E|--------------------------------------5------------|
B|----------------------------------------5-8h5------|
G|----------------5-7-5-7-5-7-5-7-5-7b9---------7b8-7|
D|------------5-7------------------------------------|
A|------3-5/7----------------------------------------|
E|5-3-5----------------------------------------------

E|------------------------------------------5--------|
B|----------------------------------------x---5-8b10-|
G|5---------------------------5-7---5-7b8------------
D|--7-5-------------------5-7-----7------------------|
A|------7-6-5-3-5-5-3-5/7----------------------------|
E|---------------------------------------------------|

E|5---/10~--8----8-10b12--10b12--10b12r10p8----------
B|--5---------10----------------------------10--10~--|
G|---------------------------------------------------|
D|---------------------------------------------------|
A|---------------------------------------------------|
E|---------------------------------------------------|

E8b10-10p8\5----------------------------------------
B|------------8-5------------------------------------|
G|----------------7b8-7-5b---------------------------|
D|-------------------------7-5--------------------5~-|
A|-----------------------------7-6-5-3-5---3-5/7--7~-|
E|---------------------------------------5-----------|

E|-------------------------------5-------------------|
B|---------------------------------5-8---------------|
G|-------------------5-7---5-7b9-------8\7p5-----5---|
D|---------------5-7-----7-------------------7-5---7-|
A\5-3-5---3-5/7-------------------------------------
E|-------5-------------------------------------------|

E|---------------------13\---------------------------|
B|---------------------------------------------------|
G|---------------------------------------------------|
D|--5------------------------------------------------|
A|7---7\5-3------------------------------------------
E|----------5-3-5\-----------------------------------|

Stevie Ray Vaughan:


E|-----8b9--10--10b12--b12--8b9--10-------10b12--8b9-|
B|-10--------------------------------10~-------------|
G|---------------------------------------------------|
D|---------------------------------------------------|
A|---------------------------------------------------|
E|---------------------------------------------------|

E|---------------------------------------------------|
B|10~-10~--8b----------------------------------------
G|-------------\7p5---------------4h5~---------------|
D|------------------7-----4~--7~---------------------|
A|--------------------5~-----------------------------|
E|---------------------------------------------------|

E|------5---8b10--5---------5-------------5----------|
B|8b10----5---------5-8b10----5-8p5-----5---8p5------
G|----------------------------------7b9---------8-7p5|
D|---------------------------------------------------|
A|---------------------------------------------------|
E|---------------------------------------------------|

E|---------------------------------------------------|
B|--------8------8------8-------10-------10------8---|
G|--5-7/9----7/9----7/9----8/11-----9/11-----8/9-----|
D|7--------------------------------------------------
A|---------------------------------------------------|
E|---------------------------------------------------|

E|---------------------------------------------------|
B|---------8----------------5------------------------|
G|9\7~p5------7/8\7p5---5-7---5h6-5h6----------------
D|-------7------------7---------------7p5~-----------|
A|------------------------------------------7\5~--3--|
E|--------------------------------------------------5|

E|---------------------------------------------------|
B|--------------7~--7--------------------------------|
G|--------------7~--7---0----------------------------|
D|5/7~----------6~--6---0----------------------------
A|------5~--6~--7~--7--------------------------------|
E|---------------------------------------------------|

E|-------5-----5-7-5h6p5---5-----------5-------------|
B|-----5---5b8-----------7---8p5-----5---8p5---------|
G|7b9----------------------------7b9---------7b9r7p5-
D|---------------------------------------------------|
A|---------------------------------------------------|
E|---------------------------------------------------|

E|-----------------------------------5---------------|
B|--------5~-------7~--6~--5~--/6--5----/10~---------|
G|--5-7b9-------0--7~--6~--5~--/6--------------------|
D|7-------------0--6~--5~--4~------------------------
A|-----------------7~--6~--5~------------------------|
E|---------------------------------------------------|

E|------8b9--10--10b12--b12--8b9--10----------8b-----|
B|10-10-------------------------------10~--10----10--
G|---------------------------------------------------|
D|---------------------------------------------------|
A|---------------------------------------------------|
E|---------------------------------------------------|

E|------------8b9--10--10b12--10b12--10b12--8--10b12~|
B|--8~--10-10----------------------------------------|
G|9--------------------------------------------------
D|---------------------------------------------------|
A|---------------------------------------------------|
E|---------------------------------------------------|

E|------8b9--10--9b10r9---------------8b9-----5------|
B|10-10-----------------10~--10~--10--------5---5b8~-
G|---------------------------------------------------|
D|---------------------------------------------------|
A|---------------------------------------------------|
E|---------------------------------------------------|

E|5--------------------------------------------------
B|--5-8-5----------------------------------------6~--|
G|--------7b9--7b9--7b9--7-5b6-------------------6~--|
D|-----------------------------7p5---------5/7~--5~--|
A|---------------------------------7\5-3---------6~--|
E|---------------------------------------5-----------|

E|----17----17----17----17----17----17-20-17~--------|
B|5~-----17----17----17----17----17-----------20-17--
G|5~-------------------------------------------------
D|4~-------------------------------------------------
A|5~-------------------------------------------------
E|---------------------------------------------------|

E|-----------------------------/--17----17----20b22--|
B|---------------------4~--5~--------17----17--------|
G|19b21--19b21~~-------4~--5~------------------------
D|----------------x\---3~--4~------------------------|
A|----------------x\---4~--5~------------------------|
E|----------------x\---------------------------------|

E|20--17~--------------------------------------------
B|--------20-17-------17-20-17-----------------------|
G|--------------19b21----------19b21r19p17----17-19--|
D|-----------------------------------------19--------|
A|---------------------------------------------------|
E|---------------------------------------------------|

E|---------------------------------------------------|
B|17-------------------------------------------------
G|---17-19----17h18-17h18----------------5-7-7b9-7b9-|
D|---------19-------------19\2-2/5-4/7~--------------|
A|---------------------------------------------------|
E|---------------------------------------------------|

E|---------------------------------------------------|
B|--------------------------------------------------7|
G|7b9-7b9r7p5-7---5-7-----5-7p5---5h6-5h6-----------7
D|--------------7-----7-5-------5---------7\--------6|
A|--------------------------------------------5~-6--7|
E|---------------------------------------------------|

E|------------5-----5-5b7-5--------------------------|
B|----------5---5b8---------5-8-5-----------------5~-|
G|---5-7b9------------------------7b9r7p5---5-7b9----|
D|-7--------------------------------------7----------|
A|---------------------------------------------------|
E|---------------------------------------------------|

E|-------------/10b12--b12--8b9--10------------------|
B|7~--6~--5~-------------------------10b--8b9--------
G|7~--6~--5~-----------------------------------\7-5h6
D|6~--5~--4~-----------------------------------------
A|7~--6~--5~-----------------------------------------
E|---------------------------------------------------|

E|---------------------------------------------------|
B|--------------12----12-----------------------------|
G|------7----5--12----12-----------------------------|
D|7\----7----5--11----11-----------------------------
A|--------------12----12-----------------------------|
E|---------------------------------------------------|
00:00 / 00:00
Outros vídeos desta música
Repetir
Outros vídeos desta música
Compositor não encontrado.
Colaboração e revisão:
  • Augusto Severo
  • Vinícius Dias
73.585 exibições
    • ½ Tom
    • A
    • Bb
    • B
    • C
    • Db
    • D
    • Eb
    • E
    • F
    • F#
    • G
    • Ab
  • Adicionar à lista

    0 comentários

    Ver todos os comentários

    Conseguiu tocar?

    8 Tocaram 1 Ainda não

    Grave um vídeo tocando Especial - Blues e nos envie!

    Entre para oCifra Club PRO

    Tenha acesso a benefícios exclusivos no App e no Site

    • Chega de anúncios

    • Prioridade de compra em lançamentos

    • Mais recursos no app do Afinador

    • Atendimento Prioritário

    • Descontos nos produtos Cifra Club

    • Ajude a produzir mais conteúdo

    00:00 / 00:00
    Capítulos
    • Início
    • Equipamento
    • História do Blues
    • Shuffle
    • Slow Blues
    • Boogie Woogie
    • Tram
    • Jump Blues
    • Turn Arround
    • T-Bone Walker
    • B.B. King
    • Albert King
    • Jimi Hendrix
    • Stevie Ray Vaughan
    • Encerramento

    Cifra Club Pro

    Aproveite o Cifra Club com benefícios exclusivos e sem anúncios
    Cifra Club Pro
    Aproveite o Cifra Club com benefícios exclusivos e sem anúncios
    OK