Cifra Club

Bola de Cristal

Fernando e Sorocaba

Cifra: Principal
exibições 252.724
Tom: A#
Intro 2x:

   Am              F              C             G
E|---------------|-13-13-13-13--|------------------|
B|---0h1-0-------|-13-13-13-13--|-----5h6-5--------|
G|---------2-----|--------------|---5-------5-5h7--|
D|-2---------2---|--------------|-5----------------|
A|---------------|--------------|------------------|
E|---------------|--------------|------------------|


   Am                              F   C
E|-------------------------------|---------------------------------|
B|-1-0-1-0-1-0-1-0-1-0-1-0h1-0---|-5-3-5-3-5-3-5-3-5-3-5-3-3h5-3-3-|
G|-2-0-2-0-2-0-2-0-2-0-2-0h2-0-2-|-5-4-5-4-5-4-5-4-5-4-5-4-4h5-4-4-|
D|-----------------------------3-|---------------------------------|
A|-------------------------------|---------------------------------|
E|-------------------------------|---------------------------------| 


Am
você vai voltar
F
Já sei como vai ser
C
Eu vou me entregar
G
De novo pra você

Am
Somos previsíveis
F
A história sempre igual
C
A gente se aventura
G
Mas volta no final

Dm              G
O universo conspira

Por nós dois
C
A gente faz bobagens
       G
Ele conserta depois

Dm
Milhões de estrelas
       G
Mas você brilhou mais forte
   C
Te achar na multidão
      G
Foi muito mais que sorte

Refrão:
Cm                G#
Não é preciso bola de cristal

Pra saber
       D#
Que eu vivo por você
    A#
Eu só sei te querer

Cm                 G#
Nunca existiu no espaço sideral
D#
Atração igual
A#
Não há nada igual
  Cm   G# D# A#  Cm     G#
Amo você,        amo você

   Cm                          G#  D#                            A#
E|-------------------------------|---------------------------------|
B|-4-3-4-3-4-3-4-3-4-3-4-3h4-3---|-8-6-8-6-8-6-8-6-8-6-8-6-8h6-6-6-|
G|-5-3-5-3-5-3-5-3-4-3-5-3h5-3-5-|-8-7-8-7-8-7-8-7-8-7-8-7-8h7-7-7-|
D|-----------------------------6-|---------------------------------|
A|-------------------------------|---------------------------------|
E|-------------------------------|---------------------------------|


(repete tudo)
Acordes para:
    Composição: SorocabaColaboração e revisão:

    0 comentários

      mostrar mais comentários

      Conseguiu tocar?

      43tocaram0ainda não

      Grave um vídeo tocando Bola de Cristal e mande pra gente!

      00:00 / 00:00
      outros vídeos desta música
      repetirqualidadeautomática
      Outro vídeos desta música
        00:00 / 00:00
        automática
        OK