Cifra Club

Eu Deixo Ela Mentir

Fernando e Sorocaba

Cifra: Principal (violão e guitarra)
tom: G
E|-----------------------------------------------------------|
B|-----------------------------------------------------------|
G|-----------------------------------------------------------|
D|-----------------------------------------------------------|
A|--------------5--5--5--5---3--3--3---0-3h5-3---------------|
E|----3--3--3------------------------------------------------|

E|-----------------------------------------------------------|
B|-----------------------------------------------------------|
G|-----------------------------------------------------------|
D|-----------------------------------------------------------|
A|-------------5--5--5--5---3-3-3-3-3-3-3-3------------------|
E|----3--3--3------------------------------------------------|

(G D C) 4x

G                D          Em         C
Quando você me disse: já não te quero mais
G        D                C
Acabou o amor me deixa em paz
G            D           Em            C
Eu me perguntei se tudo aquilo era verdade
G            D          C
E fui atrás dela com saudade
G              D        Em         C
Foi quando eu disse: o quanto à amava
G          D             C
E ela sem graça apenas aceitava
G              D           Em           C
Olhei em seus olhos, e ela disse: Eu também
G          D         C      Em  F#m
Mas se é verdade eu não sei

G        D           Em
Eu deixo ela mentir
C                          G
Eu deixo ela mentir pra mim
     D
Eu deixo ela mentir
Em      F#m   Gm    Am    G
Oh, ouo, oh, uoh, oh, oh

G       D       C 2x
Êh, êh, êh

G              D         Em        C
Quando você me disse: Você mudou demais
G            D       C
Teu amor não é, como era lá atrás
G        D              Em          C
A minha razão soube que eu não era teu
G            D            C
Mas meu coração, é mais forte que eu
G          D          Em           C
A cada manhã, eu sinto que você pode mudar
G            D       C
Mas é tão difícil de acreditar
G      D           Em            C
Você me engana, e eu fico a me envolver
G          D          C           Em F#m
Prefiro te ter assim do que não ter

VOLTA REFRÃO
00:00 / 00:00
Outros vídeos desta música
Repetir
Outros vídeos desta música
Compositor não encontrado.
Colaboração e revisão:
46.555 exibições
    • ½ Tom
    • A
    • Bb
    • B
    • C
    • Db
    • D
    • Eb
    • E
    • F
    • F#
    • G
    • Ab
  • Adicionar à lista

    0 comentários

    Ver todos os comentários

    Conseguiu tocar?

    2 Tocaram 0 Ainda não

    Grave um vídeo tocando Eu Deixo Ela Mentir e nos envie!

    Entre para oCifra Club PRO

    Tenha acesso a benefícios exclusivos no App e no Site

    • Chega de anúncios

    • Prioridade de compra em lançamentos

    • Mais recursos no app do Afinador

    • Atendimento Prioritário

    • Descontos nos produtos Cifra Club

    • Ajude a produzir mais conteúdo

    00:00 / 00:00

    Cifra Club Pro

    Aproveite o Cifra Club com benefícios exclusivos e sem anúncios
    Cifra Club Pro
    Aproveite o Cifra Club com benefícios exclusivos e sem anúncios
    OK