Cifra Club

Força de Um Furacão

Fernando e Sorocaba

Cifra: Principal (violão e guitarra)
tom: D
(intro 2x) D

D    A  Bm     G
Não dá, já chega!
D                 A
Uma tola conversa de louco
         G
E tudo teve um fim.

D|-----|
A|2p0--|
E|----0|

D    A   Bm   G
Já não me aceita,
D                A
Você olha com desprezo
             Bm             G A
E só enxerga as coisas ruins.

      Bm
Todo mundo tem defeitos,
      A                 G
Me perdoe se não sou perfeito assim!

E|---------|
B|------2--|
G|0h2-4---2|

(refrão)
D             A                 Bm
Me desculpe se não sou de ferro!
              G
Me perdoe se não sou de aço!
D            A               Bm
Toda vez a tempestade passa
             G               D
E você volta para os meus braços!

D            A            Bm
A vida não é só fantasia,
              G
A vida não é feita de ilusão.
D            A         Bm
O amor é bem mais forte
           G         D
que a força de um furacão!

(solo 2x) D  A  Bm  G  

E|------------------------------------------------------------------|
B|------------------------------------------------------------------|
G|---7--9--9/11--9--7--7/9--7---------------------------------------|
D|-7----------------------------------------------------------------|
A|----------------------------4h5-5-5-4h5-5-5-4h5-5-5-4h5-5-5-2---5-|
E|--------------------------------------------------------------5---|

E|------------------------------------------|
B|----------------------/12-----------------|
G|---7--9--9/11--9--7-----------------------|
D|-7------------------------------2-2/4-(5)-|
A|--------------------------2-4-5-----------|
E|------------------------------------------|

(repete tudo)

 Bm          A              G
Mas quando acaba nossas brigas, você me traz a paz.
Bm           A      G
Se eu tento te esquecer,
           A             D
Sigo te amando mais e mais!

(refrão)
00:00 / 00:00
Outros vídeos desta música
Repetir
Outros vídeos desta música
Composição de Jucelí Britto
Colaboração e revisão:
73.269 exibições
    • ½ Tom
    • A
    • Bb
    • B
    • C
    • Db
    • D
    • Eb
    • E
    • F
    • F#
    • G
    • Ab
  • Adicionar à lista

    0 comentários

    Ver todos os comentários

    Conseguiu tocar?

    8 Tocaram 0 Ainda não

    Grave um vídeo tocando Força de Um Furacão e nos envie!

    Entre para oCifra Club PRO

    Tenha acesso a benefícios exclusivos no App e no Site

    • Chega de anúncios

    • Prioridade de compra em lançamentos

    • Mais recursos no app do Afinador

    • Atendimento Prioritário

    • Descontos nos produtos Cifra Club

    • Ajude a produzir mais conteúdo

    00:00 / 00:00

    Cifra Club Pro

    Aproveite o Cifra Club com benefícios exclusivos e sem anúncios
    Cifra Club Pro
    Aproveite o Cifra Club com benefícios exclusivos e sem anúncios
    OK