Cifra Club

Luzes de São Paulo

Fernando e Sorocaba

Cifra: Principal (violão e guitarra)
Tom: C
Intro: F  C  G

Solo:

     F                   C               G
E|--------------------------------------------------------|
B|-------------------------------------------3------Hn5---|
G|--------0h2-0h2-0----------------------------0----------|
D|---3----3---3---3----0h2-0h2-0h2-0-------0--------------|
A|---------------------3---3---3---3-----2----------------|
E|-------------------------------------3------------------|

Primeira Parte:

Riff 1:

E|--------------|
B|--/3--1--0----|
G|--/4--2--0----|
D|--------------|

   F
E se juntar todas as luzes de São Paulo
                                C
Dos prédios e dos carros ainda não vai dar
         G
Nem a metade do que eu sinto aqui  (Riff 1)

    F
Tenta somar
E se for pouco o resultado
Junta todos os estados
         C
E ainda conta o mar
           G
Será que agora dá?  (Riff 1)

Pré-Refrão:
   F      C                G
E aí, cê tá duvidando de quê?
                        F
Se ainda não tá bom me diz
    C                      G
Se falta alguma coisa pra você
Iê,Iê

Refrão:
                     C
Quer que eu faça chover
                                G
Pra poder contar os pingos da chuva
                Abº                    Am
E ver que cada gota é um te amo pra você
                         G        F
Depois de tudo sai na janela pra ver
    G
Iê,Iê
                     C
Quer que eu faça chover
                                G
Pra poder contar os pingos da chuva
                Abº                    Am
E ver que cada gota é um te amo pra você
                         G        F
Depois de tudo sai na janela pra ver
               G
Eu tô em cada luz que São Paulo acender

     F        C        G
E|-0-1-0----0-1-0----0-1-0---3---|
B|-------1--------1--------1-----|
G|-------------------------------|
D|-------------------------------|

Primeira Parte:
    F
Tenta somar
E se for pouco o resultado
Junta todos os estados
         C
E ainda conta o mar
           G
Será que agora dá?  (Riff 1)

Pré-Refrão:
   F      C                G
E aí, cê tá duvidando de quê?
                        F
Se ainda não tá bom me diz
    C                      G
Se falta alguma coisa pra você
Iê,Iê

Refrão:
                     C
Quer que eu faça chover
                                G
Pra poder contar os pingos da chuva
                Abº                    Am
E ver que cada gota é um te amo pra você
                         G        F
Depois de tudo sai na janela pra ver
    G
Iê,Iê
                     C
Quer que eu faça chover
                                G
Pra poder contar os pingos da chuva
                Abº                    Am
E ver que cada gota é um te amo pra você
                         G        F
Depois de tudo sai na janela pra ver
    G
Iê,Iê
                     C
Quer que eu faça chover
                                G
Pra poder contar os pingos da chuva
                Abº                    Am
E ver que cada gota é um te amo pra você
                         G        F   G
Depois de tudo sai na janela pra ver   
                     C
Quer que eu faça chover
                                G
Pra poder contar os pingos da chuva
                Abº                    Am
E ver que cada gota é um te amo pra você
                         G        F
Depois de tudo sai na janela pra ver
               G
Eu tô em cada luz que São Paulo acender

     F        C        G
E|-0-1-0----0-1-0----0-1-0---3---|
B|-------1--------1--------1-----|
G|-------------------------------|
D|-------------------------------|
               
Eu tô em cada luz que São Paulo acender

     F        C        G
E|-0-1-0----0-1-0----0-1-0---3---|
B|-------1--------1--------1-----|
G|-------------------------------|
D|-------------------------------|

      F                   C               G
E|----------------------------------------------------|
B|-------------------------------------------3--------|
G|--------0h2-0h2-0----------------------------0------|
D|---3----3---3---3----0h2-0h2-0h2--------------------|
A|---------------------3---3---3---3-----2------------|
E|-------------------------------------3--------------|
exibições 89.798
Acordes para:
    Composição: Luiz Henrique / Marcia Araújo / Matheus Marcolino Colaboração e revisão:
    • juninho Colaço
    • Lucas Kappaun
    • Marquinhos Sene

    0 comentários

    mostrar mais comentários

    Conseguiu tocar?

    19 tocaram 2 ainda não

    Grave um vídeo tocando Luzes de São Paulo e mande pra gente!

    00:00 / 00:00
    outros vídeos desta música
    repetir qualidade Automático
    Outros vídeos desta música
    00:00 / 00:00
    Automático
    OK