Cifra Club

Aprenda

Paga Pau

Fernando e Sorocaba

Tab de baixo: Principal
(maneira 1)
G|---2-2---2-2-------------------------------------|
D|0-0---0-0------2-2---2-2---4-4---4-4-------------|
A|------------0-0---0-0---2-2---2-2------5-5---5-5-|
E|------------------------------------3-3---3-3----|

É isso a musica inteira.

Ou pode ser feito isso a musica inteira.

(maneira 2)
G|------------------------------|
D|0-0-0-0-----------------------|
A|-------0-0-0-0-2-2-2-2--------|
E|----------------------3-3-3-3-|
Composição de Sorocaba
Colaboração e revisão:
  • Paulo Ricardo
  • fabrisio
6.938 exibições

0 comentários

Ver todos os comentários
00:00 / 00:00
Outros vídeos desta música
Repetir Qualidade Automático
Outros vídeos desta música
00:00 / 00:00
Automático

Cifra Club Pro

Aproveite o Cifra Club com benefícios exclusivos e sem anúncios
Cifra Club Pro
Aproveite o Cifra Club com benefícios exclusivos e sem anúncios
OK