Cifra Club

Que Raiva Que Dá / Aqui a Tristeza Pula de Alegria / O Mundo Avisou (Pot-Pourri)

Fernando e Sorocaba

Cifra: Principal (violão e guitarra)
tom: G
Intro:
E|-5/9--9--9--9--7-5---12---10---9---7-5--|
B|-7/10-10-10-10-9-7-------------------5--|
G|-----------------------11---9----7---6--|
D|-------------------------------------7--|
A|----------------------------------------|
E|-------------------0--------------------|

A               E
Ela me tocou de casa

Diz que não é pra voltar
A
Que raiva que dá
              E
Que raiva que dá
      D     E        A
To voltando lá pro bar

                      E
Vai ficar com seus amigos

Vai morar em outro lugar
F#m
Que raiva que dá
              E
Que raiva que dá
      D     E      A
To voltando lá pro bar

( A E D A E A ) (2x)
E|-7/9-9-9-9-9-9-12-12-12-10-10-10-7-9-|-----------------------------|
B|-------------------------------------|-2-2-2-2-2-2-5-5-5-3-3-3-1-2-|
G|-7/9-9-9-9-9-9-13-13-13-11-11-11-8-9-|-----------------------------|
D|-------------------------------------|-2-2-2-2-2-2-5-5-5-3-3-3-1-2-|
A|-------------------------------------|-----------------------------|
E|-------------------------------------|-----------------------------|

E|-7/9-9-9-9-9-9-12-12-12-10-10-10-7-9-|-------------12-10-9-7-5-|
B|-------------------------------------|-2-2-2-2-2-2-------------|
G|-7/9-9-9-9-9-9-13-13-13-11-11-11-8-9-|-------------13-11-9-7-6-|
D|-------------------------------------|-2-2-2-2-2-2-------------|
A|-------------------------------------|-------------------------|
E|-------------------------------------|-------------------------|

A               E
Ela me tocou de casa

Diz que não é pra voltar
A
Que raiva que dá
              E
Que raiva que dá
      D     E        A
To voltando lá pro bar

                      E
Vai ficar com seus amigos

Vai morar em outro lugar
F#m
Que raiva que dá
              E
Que raiva que dá
      D     E      A
To voltando lá pro bar

A
Ela pensa que eu só sei
                   E
encher a cara no buteco

Que o buteco tem mulher
                  A
E o buteco tem xaveco
                    B
No buteco eu jogo truco
                  D
E divirto com os amigos
                      A
Mas quando volto pra casa
                  E
Quietinho de madrugada
       D    E         A
Dou de cara com o inimigo

A               E
Ela me tocou de casa

Diz que não é pra voltar
A
Que raiva que dá
              E
Que raiva que dá
      D     E        A
To voltando lá pro bar

                      E
Vai ficar com seus amigos

Vai morar em outro lugar
F#m
Que raiva que dá
              E
Que raiva que dá
      D     E      A
To voltando lá pro bar
E|------------|
B|------------|
G|------------|
D|------------|
A|-----4-5----|
E|--5-7-------|

Eu quero festa eu quero farra
Dia e noite, noite e dia
Aqui a tristeza pula de alegria

Eu quero festa eu quero farra
Dia e noite, noite e dia
               D        A
Aqui a tristeza pula de alegria.
(abafando)         D              D         A             Bm       D
E|------------------------------|-2-3-7-5--0-9-7-9-10-7--7-7-5-3-2-|
B|------------------------------|----------------------------------|
G|------------------------------|-2-4-7-6--0-9-7-9-11-7--7-7-6-4-2-|
D|----7-5-4----------7-5-4------|----------------------------------|
A|--5-------7-4-5--5-------7-4-5|----------------------------------|
E|------------------------------|----------------------------------|
(abafando)         D               D         A              A       D
E|------------------------------|----------------------------------|
B|------------------------------|--7-5-3-3--3-3-2-0--------7--5--3-|
G|------------------------------|-------------------2--------------|
D|----7-5-4----------7-5-4------|--7-5-4-4--4-4-2-0-0---5/7--5--4--|
A|--5-------7-4-5--5-------7-4-5|----------------------------------|
E|------------------------------|----------------------------------|

D                                                       A
Tava numa de sofrer não parava de beber Eu vivia no boteco.
E|----------9---7--5-----|
B|-----------------------|
G|------7/9---7--6-------|
D|-----------------------|
A|-----------------------|
E|-----------------------|

A                   Em                      A                  D
Na sinuca e na trucada só perdia e a molecada me chamava de marreco,
E|-----------14---12--10-|
B|-----------------------|
G|-----12/14---12--11----|
D|-----------------------|
A|-----------------------|
E|-----------------------|

D        D7                                                        G
Só por causa da morena que de mim não teve pena entrei nessa situação,
E|-7-10-7-|
B|--------|
G|-7-11-7-|
D|--------|
A|--------|
E|--------|

G                 D                        A                   D    G A D
Mas agora eu to mudado bonito igual Rei do gado encontrei a solução.

D                                                  A
Eu quero festa eu quero farra Dia e noite, noite e dia
            G    A          D
Aqui a tristeza pula de alegria.
                                     D7            G
Eu quero festa eu quero farra Dia e noite, noite e dia
            D         A
Aqui a tristeza pula de alegria.

Eu quero festa eu quero farra
Dia e noite, noite e dia
               D        A
Aqui a tristeza pula de alegria.
        G                          D       Em                   C
E|-6/7-7-7-6/7-7-7-6/7-7-7-5-3-5-3---|-7/8-8-8-7/8-8-8-7/8-8-8-7-5/7-|
B|---------------------------------5-|-------------------------------|
G|-6/7-7-7-6/7-7-7-6/7-7-7-5-4-5-4-4-|-8/9-9-9-8/9-9-9-8/9-9-9-7-5/7-|
D|-----------------------------------|-------------------------------|
A|-----------------------------------|-------------------------------|
E|-----------------------------------|-------------------------------|
        G                           D      ( Em C G D G )
E|-6/7-7-7-6/7-7-7-6/7-7-7-5-3-5-3---|---8-7-2-5-3-|
B|---------------------------------5-|-------------|
G|-6/7-7-7-6/7-7-7-6/7-7-7-5-4-5-4-4-|-7/9-8-2-5-4-|
D|-----------------------------------|-------------|
A|-----------------------------------|-------------|
E|-----------------------------------|-------------|

G       D           Em
O mundo inteiro avisou
                  C
Pra eu ficar bem longe daquela mulher
G      D         Em
Ela é deusa do amor
            C        D
Mas acaba com tudo se ela quiser

G      D          Em
Se tem fumaça tem fogo
           C
Não tava nem aí e entrei no seu jogo
G        D           Em
Me fez provar do seu mel
     C       D
Me fez ficar maluco
                 G
Me levou pro céu

Bm              C
Mas todo mundo avisou
Bm              C
E um dia a mesa ela virou
   D
E falou:
G
"Some da minha casa
Enjoei da sua cara
Não vem mandar em mim, trem"

       D
Eu chorei
Eu que era durão
Fiquei louco, pirado
                 Em
Dessa vez eu me abalei
   C
Aiaiai
   D
eeerêeeee
G
Olhe a palhaçada
Sai da minha aba
Nã vem mandar em mim, trem
       D
Eu chorei
Eu que era durão
Fiquei louco, pirado
                    Em
Dessa vez eu me abalei
   C
Aiaiai
   D
eeerêeeee
Am        C
Aí foi que eu dancei
        G                          D       Em                   C
E|-6/7-7-7-6/7-7-7-6/7-7-7-5-3-5-3---|-7/8-8-8-7/8-8-8-7/8-8-8-7-5/7-|
B|---------------------------------5-|-------------------------------|
G|-6/7-7-7-6/7-7-7-6/7-7-7-5-4-5-4-4-|-8/9-9-9-8/9-9-9-8/9-9-9-7-5/7-|
D|-----------------------------------|-------------------------------|
A|-----------------------------------|-------------------------------|
E|-----------------------------------|-------------------------------|
        G                           D      ( Em C G D G )
E|-6/7-7-7-6/7-7-7-6/7-7-7-5-3-5-3---|---8-7-2-5-3-|
B|---------------------------------5-|-------------|
G|-6/7-7-7-6/7-7-7-6/7-7-7-5-4-5-4-4-|-7/9-8-2-5-4-|
D|-----------------------------------|-------------|
A|-----------------------------------|-------------|
E|-----------------------------------|-------------|

G       D           Em
O mundo inteiro avisou
                  C
Pra eu ficar bem longe daquela mulher
G      D         Em
Ela é deusa do amor
            C        D
Mas acaba com tudo se ela quiser

G      D          Em
Se tem fumaça tem fogo
           C
Não tava nem aí e entrei no seu jogo
G        D           Em
Me fez provar do seu mel
     C       D
Me fez ficar maluco
                 G
Me levou pro céu

Bm              C
Mas todo mundo avisou
Bm              C
E um dia a mesa ela virou
   D
E falou:
G
''Some da minha casa
Enjoei da sua cara
Não vem mandar em mim, trem''

       D
Eu chorei
Eu que era durão
Fiquei louco, pirado
                    Em
Dessa vez eu me abalei
   C
Aiaiai
   D
eeerêeeee
G
Olhe a palhaçada
Sai da minha aba
Nã vem mandar em mim, trem
       D
Eu chorei
Eu que era durão
Fiquei louco, pirado
                    Em
Dessa vez eu me abalei
   C
Aiaiai
   D
eeerêeeee
Am        C
Aí foi que eu dancei
        G                           D      ( Em C G D G )
E|-6/7-7-7-6/7-7-7-6/7-7-7-5-3-5-3---|---8-7-2-5-3-|
B|---------------------------------5-|-------------|
G|-6/7-7-7-6/7-7-7-6/7-7-7-5-4-5-4-4-|-7/9-8-2-5-4-|
D|-----------------------------------|-------------|
A|-----------------------------------|-------------|
E|-----------------------------------|-------------|
00:00 / 00:00
Outros vídeos desta música
Repetir
Outros vídeos desta música
Composição de Sorocaba
Colaboração e revisão:
  • Antonio claro
  • Zenky
  • kleber machado
50.564 exibições
    • ½ Tom
    • A
    • Bb
    • B
    • C
    • Db
    • D
    • Eb
    • E
    • F
    • F#
    • G
    • Ab
  • Adicionar à lista

    0 comentários

    Ver todos os comentários

    Conseguiu tocar?

    6 Tocaram 0 Ainda não

    Grave um vídeo tocando Que Raiva Que Dá / Aqui a Tristeza Pula de Alegria / O Mundo Avisou (Pot-Pourri) e nos envie!

    Entre para oCifra Club PRO

    Tenha acesso a benefícios exclusivos no App e no Site

    • Chega de anúncios

    • Prioridade de compra em lançamentos

    • Mais recursos no app do Afinador

    • Atendimento Prioritário

    • Descontos nos produtos Cifra Club

    • Ajude a produzir mais conteúdo

    00:00 / 00:00

    Cifra Club Pro

    Aproveite o Cifra Club com benefícios exclusivos e sem anúncios
    Cifra Club Pro
    Aproveite o Cifra Club com benefícios exclusivos e sem anúncios
    OK