Cifra Club

Analfabetos Fardados

Fetus Humanóides

Cifra: Principal (violão e guitarra)
Tom: D
Intro:
E|-----------------------------------------------------------------|
B|-----------------------------------------------------------------|
G|-----------------------------------------------------------------|  (2x)
D|-7-7-7-7-7-7-7-7-7-7-7-7-7-7-7-7-8-8-8-8-8-8-8-8-8-8-8-8-8-8-8-8-|
A|-5-5-5-5-5-5-5-5-5-5-5-5-5-5-5-5-5-5-5-5-5-5-5-5-5-5-5-5-5-5-5-5-|
D|-----------------------------------------------------------------|

E|----------------------------------|
B|----------------------------------|
G|-----------------------------5----|  (4x)
D|-0-0-0-0-0-1-0-----0-0-0-1-0------|
A|-0-0-0-0-0-1-0-----0-0-0-1-0-3----|
D|-0-0-0-0-0-1-0-----0-0-0-1-0------|

Riff 1:
E|----------------------------------|
B|----------------------------------|
G|-----------------------3----------|
D|-0--0--0--1-0--0-0-1-0------------|
A|-0--0--0--1-0--0-0-1-0-5----------|
D|-0--0--0--1-0--0-0-1-0------------|

Riff 2:
E|--------------------------------------------|
B|--------------------------------------------|
G|--------------------------------------------|
D|-3--3--3-3--3--3--3-3--2--2--2-2--2--2--2-2-|
A|-1--1--1-1--1--1--1-1--1--1--1-1--1--1--1-1-|
D|--------------------------------------------|

Riff 3:
E|--------------------------------------------------------------------------------|
B|--------------------------------------------------------------------------------|
G|-9-9--9-10-10--10-12-12--12-15-15--15-14-14--14-14-14--14-14-14--14-14-14-14-14-|
D|--------------------------------------------------------------------------------|
A|-7-7--7-8--8---8--10-10--10-13-13--13-12-12--12-12-12--12-12-12--12-12-12-12-12-|
D|--------------------------------------------------------------------------------|

Riff 4:
E|--------------------------------------------------|
B|--------------------------------------------------|
G|-15-15-15-15-15-15-15-15-14-14-14-14-14-14-14-14--|
D|--------------------------------------------------|
A|-13-13-13-13-13-13-13-13-13-13-13-13-13-13-13-13--|
D|--------------------------------------------------|

Refrão:
E|-----------------------------------------------------------------------|
B|-----------------------------------------------------------------------|
G|-----------------------------------------------------------------------|
D|-7---7--5-5----------7---7-5-5-1010------7---7--5-5--------------------|
A|-5---5--3-3-5-7------5---5-3-3-8-8-------5---5--3-3-5-7-7-7--8-8-8-8-8-|
D|------------5-7-------------------------------------5-7-8-8--8-8-8-8-8-|

Solo:
E|--------------------------------------------------|
B|--------------------------------------------------|
G|-19-19-19-19-19-19-19-19-18-18-18-18-18-18-18-18--|
D|--------------------------------------------------|
A|-17-17-17-17-17-17-17-17-16-16-16-16-16-16-16-16--|
D|--------------------------------------------------|

E|--------------------------------------------------|
B|--------------------------------------------------|
G|-17-17-17-17-17-17-17-17-16-16-16-16-16-16-16-16--|
D|--------------------------------------------------|
A|-15-15-15-15-15-15-15-15-14-14-14-14-14-14-14-14--|
D|--------------------------------------------------|

(Intro)

(Riff 1)
Que tal pegar uma arma
e cometer um homicídio?
Parece divertido, mas
deve ter um crime nisso

(Riff 2)
Mas se eu tiver um distintivo,
                    (Riff 1 - 2x)
ninguém pode me julgar!

(Riff 3)
Atrás de um uniforme,
ninguém vai me censurar.

(Refrão 2x)
Analfabetos fardados,
Porcos uniformizados!
Homicidas armados,
Fazendo as próprias leis.

(Riff 1)
E não tem importância
se eu sou analfabeto.
É a minha arma que
me deixa mais esperto.

(Riff 2)
Enquanto eu finjo:
                (Riff 1 - 2x)
servir e proteger!

(Riff 3)
É a propina que
faz tudo acontecer.

(Refrão 2x)

(Solo)

(Riff 4)
E a cocaína,
                (Riff 1 - 2x)
me ajuda a esquecer.

(Riff 3)
Que antes do concurso publico,
eu era um bosta igual a você!

(Refrão 2x)

(Riff 1 - 4x)
exibições 633
Acordes para:
    Composição: Vitão Colaboração e revisão:
    • Conrado Lima

    0 comentários

    mostrar mais comentários

    Conseguiu tocar?

    0 tocaram 0 ainda não

    Grave um vídeo tocando Analfabetos Fardados e mande pra gente!

    00:00 / 00:00
    outros vídeos desta música
    repetir qualidade Automático
    Outros vídeos desta música
    00:00 / 00:00
    Automático
    OK