Cifra Club

Cordeiro Santo

Filhos do Homem

Cifra: Principal (violão e guitarra)
tom: G
 G           C
A Tua cruz, o Teu fardo
Em   D    C
Meu pecado apagou
 G            C
E hoje tudo novo se fez
   Em
Santidade
   D       C
É a minha adoração
  G       C
Cordeiro Santo, Cordeiro de Deus
 Em D    C
Amado da minh´alma
  G       C
Cordeiro Santo, Cordeiro de Deus
 Em D    C
Amado Salvador

Inicio /

Refrão 2X

  G         C
Cordeiro Santo, Cordeiro de Deus
 Em D     C
Amado da minh´alma
  G         C
Cordeiro Santo, Cordeiro de Deus
 Em D    C
Amado Salvador


Solo:

E|-----------------------------------------------------|
B|-----------------------------------------------------|
G|------------------5--------------------------7/9~----|
D|------------5---7---7/8-7p5h7-9b10-9p7h9-7\5---------|
A|----------5---5--------------------------------------|
E|----3-5-7--------------------------------------------|

E|----10b(12)-10b(12)----------10-12-14-12-10--------------|
B|--------------------10-12-13----------------13-12-10-----|
G|---------------------------------------------------------|
D|---------------------------------------------------------|
A|---------------------------------------------------------|
E|---------------------------------------------------------|

E|------------------------------------------------------|
B|------------------------------------------------------|
G|----12-11-9-------------------------------------------|
D|------------12-10-9------------9--------12------11----|
A|--------------------12-10-9-7----7-7/10----10-9-------|
E|------------------------------------------------------|

E|-------------------------------------------------|
B|-------------------------------------------------|
G|-------------------------------------------------|
D|---------12----------14----------16----16/17~----|
A|----9-9/----10-10/12----12-12/14----14-----------|
E|-------------------------------------------------|

E|------------------------------------------------|
B|------------------------------------------------|
G|----4h5h7-t12p7p5h4p4h5h7-t11p7p5p4h5h7-t14p----|
A|------------------------------------------------|
A|------------------------------------------------|
E|------------------------------------------------|

E|-------------------------------------------|
B|-------------------------------------------|
G|----4h5h7-t12p4h5h7-t16p4h5h7-t14p4h5h7----|
D|-------------------------------------------|
A|-------------------------------------------|
E|-------------------------------------------|

E|----------------------------------|
B|----------------------------------|
G|----t17p4h5h7-t16ph5h7-t22b24~----|
D|----------------------------------|
A|----------------------------------|
E|----------------------------------|

E|-----------------------------------------|
B|-----------------------------------------|
G|----h5h7h9tap16p5h7h9tap14p5h7h9tap17----|
D|-----------------------------------------|
A|-----------------------------------------|
E|-----------------------------------------|

E|--------------------------------------|
B|--------------------------------------|
G|----h5h7h9-t16p5h7h9-t19p5h7h9-t17----|
D|--------------------------------------|
A|--------------------------------------|
E|--------------------------------------|

E|------------------------------------|
B|------------------------------------|
G|----h5h7h9-t16p5h7h9-t13b14~~p9~----|
D|------------------------------------|
A|------------------------------------|
E|------------------------------------|

E|------------------------------------------------|
B|----5---7----8-----15----15------------15b17----|
G|----7b9-9b11-10b12-14b16-14b16--14b-12----------|
D|------------------------------------------------|
A|------------------------------------------------|
E|------------------------------------------------|

E|-------------------------14/15/17-17b19~~--------------|
B|-------10----12----15------------------------20b22~----|
G|-------------------------------------------------------|
D|----10----10----14----12-------------------------------|
A|-------------------------------------------------------|
E|-------------------------------------------------------|
00:00 / 00:00
Outros vídeos desta música
Repetir
Outros vídeos desta música
Composição de Pr. Cris Batiston
184.890 exibições
    • ½ Tom
    • A
    • Bb
    • B
    • C
    • Db
    • D
    • Eb
    • E
    • F
    • F#
    • G
    • Ab
  • Adicionar à lista

    0 comentários

    Ver todos os comentários

    Entre para oCifra Club PRO

    Tenha acesso a benefícios exclusivos no App e no Site

    • Chega de anúncios

    • Prioridade de compra em lançamentos

    • Mais recursos no app do Afinador

    • Atendimento Prioritário

    • Descontos nos produtos Cifra Club

    • Ajude a produzir mais conteúdo

    00:00 / 00:00

    Cifra Club Pro

    Aproveite o Cifra Club com benefícios exclusivos e sem anúncios
    Cifra Club Pro
    Aproveite o Cifra Club com benefícios exclusivos e sem anúncios
    OK