Cifra Club

Aprenda

Sentimento Bom

Filosofia Reggae

Tab de baixo: Principal
G|-------------------------------------------------|
D|-------------66----------------------------------|
A|----44----77----44---4---------------------------|
E|-------------------4-----------------------------|


G|-------------------------------------------------|
D|----------44-------------------------------------|
A|----22-------22---2------------------------------|
E|----------------2--------------------------------|
Colaboração e revisão:
  • Anésio Paz
236 exibições

0 comentários

Ver todos os comentários

Conseguiu tocar?

1 Tocaram 0 Ainda não

Grave um vídeo tocando Sentimento Bom e nos envie!

00:00 / 00:00
outros vídeos desta música
repetir qualidade Automático
Outros vídeos desta música
00:00 / 00:00
Automático

Cifra Club Pro

Aproveite o Cifra Club com benefícios exclusivos e sem anúncios
Cifra Club Pro
Aproveite o Cifra Club com benefícios exclusivos e sem anúncios
OK