So I Quit

Filter

tom: Bb
from "the amalgamut"


By: jh jr.

ok, that's a pretty easy one, you've just to get the timing in riff A which is a little bit fast.
just listen to the song and you'll have no problems.
it's played in drop D tuning

Intro:

Riff A:

e|---------------------------------------------------------------------------|
B|---------------------------------------------------------------------------|
G|---------------------------------------------------------------------------|
D|---3-0-0-3-0-0-3-0--3-0-0-3-0-0-3-0--3-0-0-3-0-0-3-0--6-6-6-6-6-6-6-6------|
A|---3-0-0-3-0-0-3-0--3-0-0-3-0-0-3-0--3-0-0-3-0-0-3-0--6-6-6-6-6-6-6-6------|
D|---3-0-0-3-0-0-3-0--3-0-0-3-0-0-3-0--3-0-0-3-0-0-3-0--6-6-6-6-6-6-6-6------|

play that 4 times


Verse:

play 4 times Riff A


Chorus:

e|---------------------------------|    |----------------------------------|
B|---------------------------------|    |----------------------------------|
G|---------------------------------|    |----------------------------------|
D|---0--0---10--10---5--5---8--8---|    |---0--0---10--10---6--6--6--0-0---|
A|---0--0---10--10---5--5---8--8---|    |---0--0---10--10---6--6--6--0-0---|
D|---0--0---10--10---5--5---8--8---|    |---0--0---10--10---6--6--6--0-0---|

play that 3 times,                      then play this  

end with 2 times Riff A


Verse


Chorus

+2 times Riff A


Riff B:

e|------------------------------------------|
B|------------------------------------------|
G|------------------------------------------|
D|---10--12--6--3--5--3---10--12--6--3--5---|
A|---10--12--6--3--5--3---10--12--6--3--5---|
D|---10--12--6--3--5--3---10--12--6--3--5---|

First played 2 times w/ effects, then 2 times normal



Ending:

4 times Riff A



so that's it. hope i tabbed it right
Página 1 / 1

Letras e título
Acordes e artista

resetar configurações
OK