Under

Filter

Composição de: Richard Patrick
Tab by: Matt Jordan 
Bass

	This whole song is played with distortion on the bass.  The
rythyms are not written exactly as they are played.  The 2nd part 
of the verse is after the guitar kicks in, here the bass plays a
slightly different rythym.

Dropped "D" Tuning


 Intro:

  x4
|----------------------|
|*--------------------*|
|*--------------------*|
|--0-0--0-0--0-0--0-0--|
 
 1st part of Verse:

|-----------------------------------------------------------------|
|*---------------------------------------------------------------*|
|*---------------------------------------------------------------*|
|--0-0--0-0--0-0--0-0--0-0--0-0--0-0--0-0--0-0--0-0--0-0--0-0--3--|
 (I got an empty.....)

 2nd part of Verse:

|-------------------------------------------------------------|
|------------------------------------------------------------*|
|------------------------------------------------------------*|
|--0-0--0-0--0-0--0-0--0-0--0-0--0-0--0-0--0-0--0-0--0-3-0-3--|
 (Makes you.....)

 Pre-chorus:

|--------------------------------------|
|-------------------------------------*|
|-------------------------------------*|
|--3-5-5-5--3-5-5-5--3-5-5-5--3-5-6-6--|
 (One thing.....)

 Chorus:

  x4              x4            x2
|-------------| |-----------| |-----------------|
|*-----------*| |----------*| |*---------------*|
|*-----------*| |----------*| |*---------------*|
|--6-3-5-3-0--| |--3-0-0-0--| |--0000000000000--|
 (Take someone.....)


 2nd Pre-chorus:
  x2
|----------------------------------------------|
|*--------------------------------------------*|
|*-3-5-5-5-5--3-5-5-5-5--3-5-5-5--3-5-5-6-6-6-*|
|----------------------------------------------|
 (Ohhh come on down.....)

 2nd Chorus:
  x4              x4
|-------------| |-----------------------|
|*-----------*| |----------------------*|
|*-----------*| |----------------------*|
|--6-3-5-3-0--| |--3-0-3-0-3-0-3-0-6-5--|
 (This is.....)  (Ohhhhhhh.....)

Any questions, comments or corrections, please e-mail me at 
 

Página 1 / 1

Letras e título
Acordes e artista

resetar configurações
OK