Letters to you

Finch

Composição de: Finch / Nate Barcalow
tom: Ab
LETTERS TO YOU
WHAT IT IS TO BURN

INTRO

E|----4-----|
B|----4-----|
G|----6-----|
D|----6-----|
A|----------|
E|----------|

ESTROFA

E|----------------------|
B|----------------------|
G|----6-----------------|
D|----6----3----4----6--|  X2
A|----4----3----4----6--|
E|---------1----2----4--|

PRE-CORO

E|----------------------------|
B|----------------------------|
G|--------------6----5----8---|
D|----3----4----6----5----8---| X2
A|----3----4----4----3----6---|
E|----1----2------------------|

CORO

E|----------------------|
B|----------------------|
G|----3---------6-------|
D|----3----4----6----3--| X2
A|----1----4----4----3--|
E|---------2---------1--|

INTRO

ESTROFA

PRE-CORO

CORO

INTERLUDO

E|--------------|
B|--------------|
G|----7---------|
D|----X--.....--|
A|----5---------|
E|--------------|

LIRICA
------

Can't you see
That I wanna be
There with open arms
It's empty tonight       ESTROFA
And I'm all alone
Get me through this one

Do you notice I'm gone?
Where do you run to       PRE-CORO
So far away?

I want you to know that
I miss you, I miss you so   CORO
I want you to know that
I miss you, I miss you so

I'm writing again
These letters to you
Aren't much I know        ESTROFA
But I'm not sleeping and
You're not here
The thought stops my heart

Do you notice I'm gone?
Where do you run to      PRE-CORO
So far away?

I want you to know that
I miss you, I miss you so
I want you to know that
I miss you, I miss you so  CORO
I want you to know that
I miss you, I miss you so
I want you to know that
I miss you, I miss you so

I've gone away
I've gone away   INTERLUDO

That I wanna be
There with open arms
It's empty tonight     ESTROFA
And I'm all alone
Get me through this one

Do you notice I'm gone?
Where do you run to      PRE-CORO
So far away?

I want you to know that
I miss you, I miss you so
I want you to know that     CORO
I miss you, I miss you so

I'm writing again
These letters to you
Aren't much I know         ESTROFA
But I'm not sleeping and
You're not here
The thought stops my heart

Do you notice I'm gone?
Where do you run to      PRE-CORO
So far away?

I want you to know that
I miss you, I miss you so
I want you to know that     CORO
I miss you, I miss you so
I want you to know that
I miss you, I miss you so
I want you to know that
I miss you, I miss you so

I've gone away    INTERLUDO
I've gone away

LA VERSIÒN ES FÀCIL Y MENOS PRODUCIDA QUE LAS DEMÀS, PERO PARA QUIENES ESTAN RECIÈN
ES SUPER ÙTIL. CHAU
AHI TE VA NATITA. BESOS

CUALQUIER DUDA ... HALFWAYTOHOME@*
Página 1 / 1

Letras e título
Acordes e artista

resetar configurações
OK