Cifra Club

Aprenda

What is it to burn

Finch

Cifra: Principal (violão e guitarra)
tom: E

Dropped D bemol
()-harmônica
/-slide

Efeitos
distorção (use a que você achar melhor)
guitarra limpa
wha-wha (usado só para variação nas harmônicas)


Intro-guitarra 1
Com uma variação no wha-wha no último (5)
Essa parte e logo no início. Antes da entrada do baixo
Tempo (0:07/0:13)

E---(5)-(5)-----------------------------------------------------------
B-(5)-(5)-------------------------------------------------------------

Introdução
Tempo (0:25/0:51)
distorção

E---------------------------------------------------------------------
B---------------------------------------------------------------------
G--------666/7/11-11----666/7/999---666/777---------------------------
D--000-------------------------------------------00---(5)-------------
A--000---444/5/9--9-----444/5/777---444/555------00-------------------
D--000-------------------------------------------00-------------------

Versos
Tempo (0:52/1:1:16) (1:43/2:19)
Guitarra limpa

E---------------------------------------------------------------------
B--(12)---(12)-----(7)------(7)------(7)------(7)------(7)------(7)---
G---------------------(7)------(7)------(7)------(7)------(7)------(7)
D------(7)----(7)--------(7)------(7)---------------(7)------(7)------
A---------------------------------------------------------------------
D---------------------------------------------------------------------

Distorção
E---------------------------------------------------------------------
B---------------------------------------------------------------------
G--777777-777777------------------------------------------------------
D--777777-777777--5555555---7777777-----------------------------------
A--555555-444444--5555555---7777777-----------------------------------
E-----------------5555555---7777777-----------------------------------

Refrão
Tempo (1:17/1:42) (2:20/2:46)
É igual a introdução
Distorção

Ending
Tempo (2:47/3:40)
Guitarra limpa

E-12--9------12--9----------------------------------------------------
B--------10--------------10--8/7/8/7---5/7/3-----55555555/3-----------
G------11-------------------------------------------------------------
D-------------------------------------------------------------(5)-----
A------------------------------------------------------------
D------------------------------------------------------------

Solinho antes do riff
Tempo (3:54/4:06)
Guitarra limpa

E--10/12-12-10-9-10-9-7------12/14-10/12-10-9-10-9-7--------------

Riff do refrão final
Tempo(4:06/4:52)
Distorção

E---------------------------------------------------------------------
B---------------------------------------------------------------------
G-14-14/12-12/11-11/12-12/11-11/9-9/11-11/7-7/-------14/11/7----------
D---------------------------------------------------------------------
A-12-12/10-10/9--9/-10-10/9--9/-7-7/9--9/-5-5/-------12/-9/5----------
E---------------------------------------------------------------------

Guitarra 2
intro
Tempo (0:25/0:51)
Dirtorção

E-------------------------------------------------
B-------------------------------------------------
G----------444444---------------------------------
D-000000---444444----777777----555555---00--(5)---
A-000000---222222----777777----555555---00--------
D-000000-------------777777----555555---00--------

Versos
Tempo (0:52/1:1:16) (1:43/2:19)
Dirtorção abafado

E---------------------------------------------------------------------
B--------------------------------------------------------------------
G---7777777---7777777------------------------7777777--7777777-------------------------
D---7777777---7777777---555555555555555------7777777--7777777---5555555555--777777777-
A---5555555---4444444---555555555555555------5555555--4444444---5555555555--777777777-
D-----------------------555555555555555-------------------------5555555555--777777777-

Refrão
Igual a intro
Tempo (1:17/1:42) (2:20/2:46)
dirtorção

Ending
Tempo (2:59/3:40)
Dirtorção aafado

E--------------------------------------------------------------------------
B--------------------------------10-10-10-10-10-10-88888-------------------
                                       repete 4x
G-999999-77777--999999-77777-------------------------------999999-77777--99999-77777-
      repete 4 x                                                   repete 4x

Final
Junto com o riff
Tempo (4:06/4:52)
Dirtorção

E------------------------------------------------------------------------------------
B------------------------------------------------------------------------------------
G----------444444--------------------------------------------------------------------
D-000000---444444----777777----555555---00--(5)--------------------------------------
A-000000---222222----777777----555555---00-------------------------------------------
D-000000-------------777777----555555---00-------------------------------------------

com uma variação no wha-wha (5)
Composição de Finch / Nate Barcalow
Colaboração e revisão:
  • Paulo Matosinhos
13.418 exibições
    • ½ Tom
    • A
    • Bb
    • B
    • C
    • Db
    • D
    • Eb
    • E
    • F
    • F#
    • G
    • Ab
  • Adicionar à lista

    0 comentários

    Ver todos os comentários

    Conseguiu tocar?

    0 Tocaram 0 Ainda não

    Grave um vídeo tocando What is it to burn e nos envie!

    00:00 / 00:00
    outros vídeos desta música
    repetir qualidade Automático
    Outros vídeos desta música
    00:00 / 00:00
    Automático

    Cifra Club Pro

    Aproveite o Cifra Club com benefícios exclusivos e sem anúncios
    Cifra Club Pro
    Aproveite o Cifra Club com benefícios exclusivos e sem anúncios
    OK