Cifra Club

Good Times

Finger Eleven

Tab de baixo: Principal
|--------------------|
|------15-1616161616-| x 8
|-/13----------------|
|--------------------|

verse

|---------|
|----1-3--| x4
|-3-------|
|---------|

|-----------------------------------|
|-----------------------------------|
|-111111111111111111111111111111111-|
|-----------------------------------|

|---------|
|----1-3--| x4
|-3-------|
|---------|

|-----------------------------------|
|-----------------------------------|
|-111111111111111111111111111111111-|
|-----------------------------------|

chorus

|------------------------------------------------|
|------------------------------------------------|
|-1-444-66-1-444-33-1-444-66/11-11-11-11-11-11---|
|------------------------------------------------|

|-------------------------------------|
|-----------------------------8---6---|
|-1-444-66-1-444-33-1-444-66----6---4-|
|-------------------------------------|

intro again

|--------------------|
|------15-1616161616-| x 2
|-/13----------------|
|--------------------|

verse

|---------|
|----1-3--| x4
|-3-------|
|---------|

|-----------------------------------|
|-----------------------------------|
|-111111111111111111111111111111111-|
|-----------------------------------|

|---------|
|----1-3--| x4
|-3-------|
|---------|

right before chorus wait one second then:

|--------------------|
|--------------------|
|-/11-11-11-11-11-11-|
|--------------------|

chorus

|------------------------------------------------|
|------------------------------------------------|
|-1-444-66-1-444-33-1-444-66/11-11-11-11-11-11---|
|------------------------------------------------|

|-------------------------------------|
|-----------------------------8---6---|
|-1-444-66-1-444-33-1-444-66----6---4-|
|-------------------------------------|

|------------------------------------------------|
|------------------------------------------------|
|-1-444-66-1-444-33-1-444-66/11-11-11-11-11-11---|
|------------------------------------------------|

|--------------------------------------------------|
|---------------------------8----------------------|
|-1-44-66-1-444-33-1-44-66----6/-16-16-16-16-16-16-|
|--------------------------------------------------|

break - 1:55 to 2:06 then

bridge

|--------|    |-------|
|-----16-|    |----13-|
|-/14----| x8 |-11----| x 8  play all this over 2 more times
|--------|    |-------|

break - 2:23 to 2:42

|---------|
|-8---6---|
|---6---4-|
|---------|

chorus x2

|------------------------------------------------|
|------------------------------------------------|
|-1-444-66-1-444-33-1-444-66/11-11-11-11-11-11---|
|------------------------------------------------|

|---------------------------------------|
|-----------------------------8---6-----|
|-1-444-66-1-444-33-1-444-66----6---4---|
|---------------------------------------|

intro again

|--------------------|
|------15-1616161616-| x 8
|-/13----------------|
|--------------------|

outro x2

|------------------------------------------------------|
|------------------------------------------------------|
|-/13-131313-13-16-161616-16-18-181818-18-20-202020-20-|
|------------------------------------------------------|

|-------------------------------------------------------|
|-------------------------------------------------------|
|-13-131313-13-16-161616-16----------------13-131313-13-|
|----------------------------16-161616-16---------------|

end with

|-----|
|-----|                 PLEASE RATE THIS IT TOOK ME A WHILE
|-13~-|                              THANKS :)
|-----|
Composição de James Black / Rich Beddoe / Rick Jackett / Scott Anderson / Sean Anderson
289 exibições

0 comentários

Ver todos os comentários

Conseguiu tocar?

0 Tocaram 0 Ainda não

Grave um vídeo tocando Good Times e nos envie!

00:00 / 00:00
Outros vídeos desta música
Repetir Qualidade Automático
Outros vídeos desta música
00:00 / 00:00
Automático

Cifra Club Pro

Aproveite o Cifra Club com benefícios exclusivos e sem anúncios
Cifra Club Pro
Aproveite o Cifra Club com benefícios exclusivos e sem anúncios
OK