Cifra Club

Aprenda

Menina Bonita

Fino Coletivo

Cifra: Principal (violão e guitarra)
tom: Dm
[Intro] Dm7(9) C#m7(9-) C7M(9)  C#m7(9-)  Dm7(9)

    Dm7(9)
E|----------------------------------------------|
B|---5------3-----------------------------------|
G|---5------4-----------------------------------|
D|---3------2-----------------------------------|
A|---5------3-----------------------------------|
E|----------------------------------------------|

       C7M(9)   C7M(9)   C#m7(9-)  Dm7(9)
E|----------------------------------------------|
B|-------3--3-----3---3-------------5--5--------|
G|------4--4-----4---4-------------5--5---------|
D|-----2--2-----2---2-------------3--3----------|
A|----3--------3---4-------------5--------------|
E|----------------------------------------------|

               Dm7(9)
Oi oi oi oi oi oi Iô iô iô iô
       C7M(9)           C#m7(9-)
Oi oi oi oi oi oi Iô iô iô iô

Dm7(9)             
Eu vi a menina bonita
C7M(9) (C#m7(9-))
Eu vi a menina bonita

Dm7(9)             
Eu vi a menina bonita
C7M(9)                       
Eu vi a menina bonita
            C#m7(9-)
Enrolar uns cachos negros

Dm7(9)             
Eu vi a menina bonita
C7M(9)                                C#m7(9-)
Eu vi a menina bonita... Dançar de sapato baixo

Dm7(9)             
Eu vi a menina bonita
C7M(9)               C7M(9) 
Eu vi a menina bonita

Meus olhos vão com ela
                Dm7(9)
Meu pensamento é nela
                C7M(9)
E o coração ela ganhou (2x)
C7M(9)              C#m7(9-)
Bebendo água de côco

Dm7(9)             
Eu vi a menina bonita
C7M(9)                         
Eu vi a menina bonita
                 C#m7(9-)
Das unhas cor de vermelho
Dm7(9)             
Eu vi a menina bonita
C7M(9)             C7M(9)[PAUSA]
Eu vi a menina bonita
               Dm7(9)
Oi oi oi oi oi oi Iô iô iô iô
       C7M(9)  C#m7(9-)
Oi oi oi oi oi oi Iô iô iô iô

Dm7(9)             
Eu vi a menina bonita
C7M(9)        C7M(9)
Eu vi a menina bonita
Composição de Alvinho Lancellotti
Colaboração e revisão:
  • Fellipe Shen
  • Davi Estrela
3.671 exibições
    • ½ Tom
    • Am
    • Bbm
    • Bm
    • Cm
    • C#m
    • Dm
    • Ebm
    • Em
    • Fm
    • F#m
    • Gm
    • G#m
  • Adicionar à lista

    0 comentários

    Ver todos os comentários

    Conseguiu tocar?

    0 Tocaram 0 Ainda não

    Grave um vídeo tocando Menina Bonita e nos envie!

    00:00 / 00:00
    Outros vídeos desta música
    Repetir Qualidade Automático
    Outros vídeos desta música
    00:00 / 00:00
    Automático

    Cifra Club Pro

    Aproveite o Cifra Club com benefícios exclusivos e sem anúncios
    Cifra Club Pro
    Aproveite o Cifra Club com benefícios exclusivos e sem anúncios
    OK