Cifra Club

Love Of A Lifetime

FireHouse

Cifra: Principal (violão e guitarra)
tom: G
[intro] 

    G                 D/F#                  Em
e|-----------3-----------------0---------|----------3---------|
B|---------3---3-------------3---3-------|-------------5------|
G|-------0-------0---------2-------2-----|-------4-------4----|
D|-----0-----------0-----0-----------0---|-----2-----------2--|
A|---------------------------------------|--------------------|
E|--3-----------------2------------------|--0-----------------|

    D9                  Am7               Bm7              C    
e|---------0---------|---------0--------------2---------|--------0-------|
B|-------3---3-------|-----------1--------------3-------|----------1-----|
G|-----2-------2-----|-------0-----0--------2-----2-----|------0-----0---|
D|--0------------0---|-----2---------2----4---------4---|----2---------2-|
A|-------------------|--0--------------2----------------|--3-------------|
E|-------------------|----------------------------------|----------------|

    D9             D       D4      D
e|---------0-------2-------3-------2-----------|
B|-----------3-------3-------3-----------3-----|
G|-----2-------2-------2-------2-----------2---| 
D|--0------------------------------------------| 
A|---------------------------------------------|
E|---------------------------------------------|

( G  D/F#  Em   D9  Am7  Bm7    C  D )

I guess the time was right for us to say
We'd take our time and live our lives
Together day by day

( G  D/F#  Em   D9  Am7  Bm7    C  D )

We'll make a wish and send it on a prayer
We know our dreams can all come true
With love that we can share  

     Am7         Bm7    
With you i never wonder
   Am7               Bm7
Will you be there for me
     Am7           Bm7
With you i never wonder
           C       D
You're the right one for me

  G                     Bm       C      D
I finally found the love of a lifetime
  G                    Bm            C    D
A love to last my whole life through
  G                     Bm       C      D
I finally found the love of a lifetime
  Am           Bm         C         
Forever in my heart, i finally found the
  D           G    
Love of a lifetime

[Solo] Bm  C  D
         
E|-----------------|------------------------------------|
B|--/8--8/10-8-7---|-7/8-7---------------8/10~~~~--8----|
G|-----------------|-------9---9/11-9-7-----------------|
D|-----------------|------------------------------------|
A|-----------------|------------------------------------|
E|-----------------|------------------------------------|

( G  D/F#  Em   D9  Am7  Bm7    C  D )

With every kiss our love is like brand new
And every star up in the sky was made
For me and you

( G  D/F#  Em   D9  Am7  Bm7    C  D )

Still we both know that the road is long
We know that we will be together
Because our love is strong

[refrão]

[Solo] C B A D

E|-----------------|-----------------------------|----------------------|
B|--/8--8/10-8-7---|-7/8-7---------------8^^~~~~-|-----8-10^(10)^p8---8-|
G|-----------------|-------9---9h11p9-7----------|---9--------------7---|
D|-----------------|-----------------------------|----------------------|
A|-----------------|-----------------------------|----------------------|
E|-----------------|-----------------------------|----------------------|
     
E|-----------------|------------17--------|-----------15------22-----^^^|
B|--10^p8---8------|----15-17^-----^17p15-|-17--------------------------|
G|--------9---9----|-16-------------------|-----------------------------|
D|-----------------|----------------------|-----------------------------|
A|-----------------|----------------------|-----------------------------|
E|-----------------|----------------------|-----------------------------|

A                    C#m        D      E/G#
Finally found the love of a lifetime
   A                  C#m             D    E
A love to last my whole life through
   A                  C#m        D      E
I finally found the love of a lifetime
   Bm        C#m         D
Forever in my heart, i finally found the
   E             A  C#m D
Love of a lifetime
    E         A     C#m  D
Love of a lifetime
   E                    A    C#m  D
I finally found the love
E        Bm                C#m
 oo!  forever in my heart
    D                   E
I finally found the love 
Of a lifetime

    A                C#m              D9            E                  A
e|---------0----------------4-------|-------0---------------0----------0--|
B|-------2---2----------------5-----|-----3---3---------------0--------0--|
G|-----2-------2---------4------4---|---2-------2---------1-----1------2--|
D|---2-----------2-----6----------6-|-0-----------0-----2---------2----2--|
A|-0---------------/4---------------|-----------------2----------------2--|
E|----------------------------------|---------------0------------------2--|
00:00 / 00:00
Outros vídeos desta música
Repetir
Outros vídeos desta música
Composição de Bill Leverty / C.J. Snare
Colaboração e revisão:
  • Wagner Exo
  • Rafael Stefanski
21.005 exibições
    • ½ Tom
    • A
    • Bb
    • B
    • C
    • Db
    • D
    • Eb
    • E
    • F
    • F#
    • G
    • Ab
  • Adicionar à lista

    0 comentários

    Ver todos os comentários

    Entre para oCifra Club PRO

    Tenha acesso a benefícios exclusivos no App e no Site

    • Chega de anúncios

    • Prioridade de compra em lançamentos

    • Mais recursos no app do Afinador

    • Atendimento Prioritário

    • Descontos nos produtos Cifra Club

    • Ajude a produzir mais conteúdo

    00:00 / 00:00

    Cifra Club Pro

    Aproveite o Cifra Club com benefícios exclusivos e sem anúncios
    Cifra Club Pro
    Aproveite o Cifra Club com benefícios exclusivos e sem anúncios
    OK