Cifra Club

214 Sullivan Street

Fito & Fitipaldis

Cifra: Principal
exibições 1.101
Tom: D
Hola a todos, es mi primer aporte en LaCuerda y como vi que 
mucha gente pedía el tab de Sullivan pues lo hice y aquí está. 
La parte del principio no se muy bien como es, así que 
esta el punteo solamente: 

Por la batería, es un 4/4, así que he separado mas o 
menos las notas para hacerse una idea 

E||--3----3--3--3--7--3----| 
B||------------------------| 
G||------------------------| 
D||------------------------| 
A||------------------------| 
E||------------------------| 

--3----3--3--3--7--3----|-------4----7----4-----| 
------------------------|--2-----------------2--| 
------------------------|-----------------------| 
------------------------|-----------------------| 
------------------------|-----------------------| 
------------------------|-----------------------| 

------------------0--4--|--7----0--0--5----0--0--| 
--L------------2--------|------------------------| 
------------------------|------------------------| 
------------------------|------------------------| 
------------------------|------------------------| 
------------------------|------------------------| 

--4----0--0--4----0-----| 
---------------------2--| 
------------------------| 
------------------------| 
------------------------| 
------------------------| 

--0--0--------0--0--------| 
--------2--0--------2--0--| 
--------------------------| 
--------------------------| 
--------------------------| 
--------------------------| 

--0--0-----------0--4--7--| 
--------2--0--L-----------| 
--------------------------| 
--------------------------| 
--------------------------| 
--------------------------| 

--9----9----9--12--9--7--| 
-------------------------| 
-------------------------| 
-------------------------| 
-------------------------| 
-------------------------| 

--9----9----9--14--11--7--|-----0------0---------| 
--------------------------|--2--9------9------2--| 
--------------------------|----------------------| 
--------------------------|----------------------| 
--------------------------|----------------------| 
--------------------------|----------------------| 

--0------0--0-----------| 
--9------9--L--2--2--2--| 
------------------------| 
------------------------| 
------------------------| 
------------------------| 

--9-------7--7--------7--|--L-----7-----7--------| 
-------0--------0--0-----|-----0-----0-----------| 
-------------------------|-----------------------| 
-------------------------|-----------------------| 
-------------------------|-----------------------| 
-------------------------|-----------------------| 

--0----------0----------|--0--0-----0--0--------| 
--0----0--0--0----0--0--|--0--0--0--0--L--------| 
-------1--1-------1--1--|--------1--------------| 
------------------------|-----------------------| 
------------------------|-----------------------| 
------------------------|-----------------------| 

--4----0--0--0----0--0--|--4--4--0--4--L--4------| 
--5----0--0--9----0--0--|--5--5--0--5--L--5------| 
------------------------|------------------------| 
------------------------|------------------------| 
------------------------|------------------------| 
------------------------|------------------------| 

---5----5--5---5----5--5--| 
--14----5--5--14----5--5--| 
--------------------------| 
--------------------------| 
--------------------------| 
--------------------------| 

--0--0-----0--L--------|--4----0--0--4----0--0--| 
--0--0--0--0--L--------|--5----0--0--5----0--0--| 
--------1--------------|------------------------| 
-----------------------|------------------------| 
-----------------------|------------------------| 
-----------------------|------------------------| 

--4--4--0--0--L--4------| 
--5--5--0--9--L--5------| 
------------------------| 
------------------------| 
------------------------| 
------------------------| 

---9----5--5---9----5--5--| 
--10----5--5--10----5--5--| 
--------------------------| 
--------------------------| 
--------------------------| 
--------------------------| 

---9---9--5---5---L--------| 
--10--10--5--14---L--------| 
---------------------------| 
---------------------------| 
---------------------------| 
---------------------------| 

--------------------------| 
--0--0--2--2--4--4--2--2--| 
--------------------------| 
--------------------------| 
--------------------------| 
--------------------------| 

--------------------------|----------------------| 
--0--0--------------------|----------------------| 
--------2--2--1--1--2--1--|----------------------| 
--------------------------|--2--------L----------| 
--------------------------|--------------2--4----| 
--------------------------|----------------------| 

------------------------| 
---------------0--2--0--| 
------------------------| 
------------------------| 
--2---------------------| 
------------------------| 

--4----4--0--------------|-----------------------| 
--4----4--0--------------|--0----0---------------| 
----------------1--2--1--|--1----1---------------| 
-------------------------|----------2--L---------| 
-------------------------|-----------------------| 
-------------------------|-----------------------| 

-------0-----0---------|--4----4--0--L---------| 
--2-------2-----2------|-----------------------| 
-----------------------|-----------------------| 
-----------------------|-----------------------| 
-----------------------|-----------------------| 
-----------------------|-----------------------| 

--4--7------4----0----|------------2--4------| 
----------------------|--0--4----------------| 
----------------------|----------------------| 
----------------------|----------------------| 
----------------------|----------------------| 
----------------------|----------------------| 

--0-----------------|-------------------| 
--------------------|-------------------| 
--------------------|-------------------| 
--------------------|------silencio-----| 
--------------------|-------------------| 
--------------------|-------------------| 

--4------0--0--------|-----------4----0----| 
---------------------|---------------------| 
---------------------|---------------------| 
---------------------|---------------------| 
---------------------|---------------------| 
---------------------|---------------------| 

--2-----------------|-------------------| 
-------4------------|-------------------| 
--------------------|-------------------| 
--------------------|------silencio-----| 
--------------------|-------------------| 
--------------------|-------------------| 

--------------------2--4--|--5----4----2----0----| 
-----------0--2--4--------|----------------------| 
--1--1--1-----------------|----------------------| 
--------------------------|----------------------| 
--------------------------|----------------------| 
--------------------------|----------------------| 

--4----0-------------|-------------------| 
---------------------|-------------------| 
---------------------|-------------------| 
---------------------|------silencio-----| 
---------------------|-------------------| 
---------------------|-------------------| 

--4------0--L--------|-----0--2--4--4--7--9--12--| 
---------------------|--2------------------------| 
---------------------|---------------------------| 
---------------------|---------------------------| 
---------------------|---------------------------| 
---------------------|---------------------------| 

--2--4--L------------|-------------------| 
---------------------|-------------------| 
---------------------|-------------------| 
---------------------|------silencio-----| 
---------------------|-------------------| 
---------------------|-------------------| 

--11--9--4--5--4--4--2-----| 
------------------------4--| 
---------------------------| 
---------------------------| 
---------------------------| 
---------------------------| 

------------4----4----|--2------0--L---------| 
-------4--------------|-------------------2--| 
--1-------------------|----------------------| 
----------------------|----------------------| 
----------------------|----------------------| 
----------------------|----------------------| 

|--------0----4----4----|--2-----------------| 
|---2-------------------|--------------------| 
|-----------------------|--------------------| 
|-----------------------|--------------------| 
|-----------------------|--------------------| 
|-----------------------|--------------------| 

-------0----4----0----|--2------4--0--------| 
--2-------------------|---------------------| 
----------------------|---------------------| 
----------------------|---------------------| 
----------------------|---------------------| 
----------------------|---------------------| 

-----------------------| 
--------------------0--| 
-----------------1-----| 
--------------4--------| 
-----------------------| 
-----------------------| 

--0-----0-----0-----------| 
-----2-----2-----------0--| 
--------------------1-----| 
-----------------4--------| 
--------------------------| 
--------------------------| 

--------------------------| 
--4--0--4--0--4--0--2--4--| 
--------------------------| 
--------------------------| 
--------------------------| 
--------------------------| 

--0--------------------|| 
---------2--L----2-----|| 
-----------------------|| 
-----------------------|| 
-----------------------|| 
-----------------------|| 

|--------0----4----4----|--2-----------------| 
|---2-------------------|--------------------| 
|-----------------------|--------------------| 
|-----------------------|--------------------| 
|-----------------------|--------------------| 
|-----------------------|--------------------| 

-------0----4----0----|--2------4--0--------| 
--2-------------------|---------------------| 
----------------------|---------------------| 
----------------------|---------------------| 
----------------------|---------------------| 
----------------------|---------------------| 

-----------------------| 
--------------------0--| 
-----------------1-----| 
--------------4--------| 
-----------------------| 
-----------------------| 

--0-----0-----0-----------| 
-----2-----2-----------0--| 
--------------------1-----| 
-----------------4--------| 
--------------------------| 
--------------------------| 

--0-----0-----4-----------| 
-----2-----2-----------0--| 
--------------------1-----| 
-----------------4--------| 
--------------------------| 
--------------------------| 

--------------2-----0----|--------------------|| 
--4--0--4--0-----4-------|--2-----------------|| 
-------------------------|--------------------|| 
-------------------------|--------------------|| 
-------------------------|--------------------|| 
-------------------------|--------------------|| 

Bueno, es es todo, la próxima, Bo Diddley 
Acordes para:
    Colaboração e revisão:
    • Natasha Santos

    0 comentários

      mostrar mais comentários

      Conseguiu tocar?

      0tocaram0ainda não

      Grave um vídeo tocando 214 Sullivan Street e mande pra gente!

      00:00 / 00:00
      outros vídeos desta música
      repetirqualidadeautomática
      Outro vídeos desta música
        00:00 / 00:00
        automática
        OK