Cifra Club

Bad Company

Five Finger Death Punch

Cifra: Principal (violão e guitarra)
tom: A
Intro:
C#|---------------------------------------------------------------------|
G#|----------------------6----------------6--------------6--------------|
E |--------------------------7----------------7--------------7----------|  2x
B |------------------7----------------7--------------7------------------| 
F#|-----0--3-----5----------------5--------------5----------------------|
B |---------------------------------------------------------------------|

C#|----------------------------------------------------------------------------------------------------------------------------|
G#|-----------------------------6--------------------------------------3------------------------------------6------------------|
E |---------------------7-----------7--------7----------------5------------5-------5---------------7------------7--------7-----|
B |-----------------7------7------------7----------------5--------5------------5--------------7--------7-------------7---------|
F#|---0--3------5------------------------------------3------------------------------------5------------------------------------|
B |----------------------------------------------------------------------------------------------------------------------------|

C#|--------------------|
G#|--------------6-----|
E |----------7---------|
B |-----7--------------|
F#|-5------------------|
B |--------------------|

C#|----------------------------------------------------------------------------------------------------------------------------|
G#|-----------------------------6--------------------------------------3------------------------------------6------------------|
E |---------------------7-----------7--------7----------------5------------5-------5---------------7------------7--------7-----|
B |-----------------7------7------------7----------------5--------5------------5--------------7--------7-------------7---------|
F#|---0--3------5------------------------------------3------------------------------------5------------------------------------|
B |----------------------------------------------------------------------------------------------------------------------------|

C#|--------------------------------------------------------------5-----------------|
G#|-------------------3------------------------------5h6p5-----------5h6-----------|
E |---------5------------5-------5-----------7---------------7-------------7-------|
B |-----5--------5-----------5-----------7-------7-----------------------------7---|
F#|-3--------------------------------5---------------------------------------------|
B |--------------------------------------------------------------------------------|

C#|----------------------------------------------------------------------------------------------------------------------------|
G#|-----------------------------6--------------------------------------3------------------------------------6------------------|
E |---------------------7-----------7--------7----------------5------------5-------5---------------7------------7--------7-----|
B |-----------------7------7------------7----------------5--------5------------5--------------7--------7-------------7---------|
F#|---0--3------5------------------------------------3------------------------------------5------------------------------------|
B |----------------------------------------------------------------------------------------------------------------------------|

C#|--------------------|
G#|--------------6-----|
E |----------7---------|
B |-----7--------------|
F#|-5------------------|
B |--------------------|

C#|----------------------------------------------------------------------------------------------------------------------------|
G#|-----------------------------6--------------------------------------3------------------------------------6------------------|
E |---------------------7-----------7--------7----------------5------------5-------5---------------7------------7--------7-----|
B |-----------------7------7------------7----------------5--------5------------5--------------7--------7-------------7---------|
F#|---0--3------5------------------------------------3------------------------------------5------------------------------------|
B |----------------------------------------------------------------------------------------------------------------------------|

C#|---------------------------------------------------------------------|
G#|------------------3----------------------------------6---------------|
E |----------5-----------5--------5-------------7-----------7-------7---|
B |-----5--------5------------5-------------7-------7-----------7-------|
F#|-3-----------------------------------5-------------------------------|
B |---------------------------------------------------------------------|
Bm        A        Bm
Company always on the run
Bm         A        Bm
Destiny is a rising sun, oh
Bm           A        Bm
I was born, shotgun in my hand
Bm             A               Bm
Behind a gun, I'll make my final stand

                      Bm  A
That's why they call me

D        E                   Bm  A
Bad Company, but I can't deny
D        E                     Bm  A
Bad Company, 'til the day I die

( F#m  A  Bm  A )

'Til the day I die, 'til the day I die

( Bm  A  Bm )
Rebel souls, deserters we are called
Chose a gun, and threw away the sun
Now these towns, they all know our name
Shotgun sound is our claim to fame

I can hear them say, Bad Company, and I won't deny
Bad Company, 'til the day I die
'Til the day I die
Bad Company, I can't deny
Bad Company, 'til the day I die

And I said, Bad Company, oh yeah yeah
Bad Company, 'til the day I die
'Cause I'm young and I'm free
Oh, but I'm in Bad Company
Composição de Mick Ralphs / Paul Rogers
Colaboração e revisão:
26.751 exibições
    • ½ Tom
    • A
    • Bb
    • B
    • C
    • Db
    • D
    • Eb
    • E
    • F
    • F#
    • G
    • Ab
  • Adicionar à lista

    0 comentários

    Ver todos os comentários

    Conseguiu tocar?

    2 Tocaram 1 Ainda não

    Grave um vídeo tocando Bad Company e nos envie!

    00:00 / 00:00
    Outros vídeos desta música
    Repetir Qualidade Automático
    Outros vídeos desta música
    00:00 / 00:00
    Automático

    Cifra Club Pro

    Aproveite o Cifra Club com benefícios exclusivos e sem anúncios
    Cifra Club Pro
    Aproveite o Cifra Club com benefícios exclusivos e sem anúncios
    OK