Chororô

Flamengo

Composição de: Torcida do Flamengo
tom: D
  e|--4-4--2--0-----------|
  B|------------0---------|
  G|----------------------|
    
  e|---4-4-2--5--2--------|
  B|----------------------|
  G|----------------------|
    
  e|---2-2-0--------------|
  B|---------4------------|
  G|----------------------|
    
E|---2-2-0--------------|
B|---------4------------|
G|----------------------|
   
E|-----4-2-0------------|
B|---0------------------|
G|----------------------|
G                      D/F#                     Em                             A9
E ninguém cala esse chororô,chora o presidente,chora o time todo,chora o torcedor
Página 1 / 1

Letras e título
Acordes e artista

resetar configurações
OK