Hino do Flamengo

Flamengo

Composição de: Mktsamp
tom: D
E|--5-5-6-5-8----5-8-5------------------8/10--6---------|
B|------------8---------8-6-----6-6-6-------------------|
G|------------------------------------------------------|
D|------------------------------------------------------|
A|------------------------------------------------------|
E|------------------------------------------------------|

E|--10/13--10-8--------------8/10--6--10/13--12-------12|
B|------------------6-8-6-----------------------13-10---|
G|------------------------------------------------------|
D|------------------------------------------------------|
A|------------------------------------------------------|
E|------------------------------------------------------|

E|--10-------10-10--8-------10-------8--6------3--5-----|
B|-----11-8-----------10----------10--------6-----------|
G|-----------------------10-----------------------------|
D|------------------------------------------------------|
A|------------------------------------------------------|
E|------------------------------------------------------|

E|--5-5-6-5-8-----6-5-3--8--5---------------------------|
B|-------------8---------------6------------------------|
G|------------------------------------------------------|
D|------------------------------------------------------|
A|------------------------------------------------------|
E|------------------------------------------------------|


Página 1 / 1

Letras e título
Acordes e artista

resetar configurações
OK