Vamos Flamengo, Vamos Ser Campeões, Vamos Flamengo.. Minha Maior Paixão, Vamos Flamengo.. e Essa Taça Vamos Conquistar!

Flamengo

tom: D
-9-9-9-9---------7--9-9--7----------7-----------7-7------ 
---------7--9-10-----------10-9-10------7--9-10----------
--------------------------------------9------------------
---------------------------------------------------------
---------------------------------------------------------
---------------------------------------------------------

---------------------------------------------------------
-10--9-7-9--10--------7--9--10--10--9--10--9--9--7-------
----------------7--9-------------------------------------
---------------------------------------------------------
---------------------------------------------------------
---------------------------------------------------------

Entre a primeira e a segunda tablatura, não há espaço de tempo, apenas separei pra ficar 
mais organizado! ;D vlw!
Página 1 / 1

Letras e título
Acordes e artista

resetar configurações
OK