Cifra Club

Aprenda

Me Diz Amor

Flávio José

Tab de baixo: Principal
Afinação em E



|-----------------------7-9/11\-------------------------------------
|-------------------7h9-----------------------------------------
|--5---5-8---7-9--5--------------------------------------------------
|----6-----8-------------------------------------------------------

repete

me diz amor como é que vai ficar

|------------------------------------------------------------
|----------------------------------------------------7-------------5-----
|-5----5-----5-8-----7-10\-----5-----5-7-----7-----7----5------5-7--------------
|----6---6-------8---------1-0-----6-------6---5-----------------------

repete

so de pensar me da um arrepio

|------------------------------------------------------------
|----------1--3----3--------------------------------------------
|-3------1-------3---1-----1------5-----5-------1---------------------
|---0-1-----------------1----0--5-----5---6---1---0---------------------

quando me deito quando me levanto

|-------------------------------3-----------------------------
|-------------------3---------3--------------------------------
|------3--------3-5---5-3-5-1----------5------5------5-5------------------
|--5-6---0-1----------------------0--5------5----1-0-------------------


repete


Daniel Bonfim - v3rm0t3@gmail.com
Composição de Accioly Neto
Colaboração e revisão:
  • Daniel bonfim
11.129 exibições

0 comentários

Mostrar mais comentários

Conseguiu tocar?

0 Tocaram 0 Ainda não

Grave um vídeo tocando Me Diz Amor e mande pra gente!

00:00 / 00:00
outros vídeos desta música
repetir qualidade Automático
Outros vídeos desta música
00:00 / 00:00
Automático
OK