Autogestão

Flicts

Composição de: Flicts
Clássico do Flicts no baixo! ( quem nunca quis toca essa música no baixo depois que ouviu?)

Na Música o Baixo é bem "Visível", aqui só to facilitando, o resto ( como tempo, repetição etc etc )
da pra tirar de ouvido, né? 

G|-----------------------------------------------------------------------------------------------||
D|------------------3--6--3------------------------------------3--6--3--------------------------:||
A|-------3--6--3--4-----------3--6--3--6--4--3------3--6--3--4-----------3--6--3--6--4--3-------:||
E|-----4--------------------4------------------6--4--------------------4------------------6--4---||
  (repete até começar a voz )

G|----------------------------------------------------------------||
D|---------------------------------------------------------------:||
A|-------------4-44-44-------6-66-66-------4-44-44-------6-66-66-:||
E|------4-44-44-------4-44-44-------4-44-44-------4-44-44---------||

    ---> Segunda parte =D  

 ( Fácim né? para iniciantes é um pequeno execício, ajuda um cadim ;D)


 Thank's ;)

Créditos:
Davy "Carelles" Silvares (Banda The Carelles)
Página 1 / 1

Letras e título
Acordes e artista

resetar configurações
OK