Juventude

Flicts

Composição de: Flicts
tom: F#
Intro: F#

F#
Não consegue estudar
Não há onde trabalhar
A procura de um emprego
A procura de um lugar

REFRÃO
F#             B 
Crescendo na miséria
   C#         F#   
Sonhando pela rua
                    B
Sem passado e sem futuro
         C#         F#
Entre o crime e a labuta

B C# F# 2x - ae no final do F# da primeira parte faz:

D|--44-22----|
A|--------44-|

F#
Indo pra nenhum lugar
Vindo de lugar nenhum
Pára em qualquer lugar
Na esperança de algum

REFRÃO

F#
O ócio vira ódio
A miséria a união
A esperança o motivo
A vingança em sua mão

REFRÃO

F#
Juventude massacrada
Juventude oprimida
A cerveja na goela
Para suportar a vida

Solo:
e|-------------------------|
b|-------------------------|
g|---33--------------------|    Repete 2 vezes.
D|-44-----11----33---------|
A|------22----44------11---|
E|------------------22-----|
Página 1 / 1

Letras e título
Acordes e artista

resetar configurações
OK