Cifra Club

Aprenda

Cruel Mistress

Flogging Molly

Tab de baixo: Principal
intro/verse
-------------------------------------|
-------------------------------------|
----5------5----3----1---5-----------|
-3-----3----------------------3------|

chorus
-----------------------------------------------|
-5----5----------------------------------------|
---5-----5---3----3-----5-----5----5---5-------|
-----------------3----3------5----5---5--5-----|

breakdown
----------------------------------------------|
----------------------------------------------|
--6---6----5----5-----3---3------5---5--------|
----6---6-----5----5----3-----3---5------5----|
Composição de Bridget Regan / Dave King / Dennis Casey / Flogging Molly / George Schwindt / Matt Hensley / Nathen Maxwell / Robert Schmid
412 exibições

0 comentários

Mostrar mais comentários

Conseguiu tocar?

0 Tocaram 0 Ainda não

Grave um vídeo tocando Cruel Mistress e mande pra gente!

00:00 / 00:00
outros vídeos desta música
repetir qualidade Automático
Outros vídeos desta música
00:00 / 00:00
Automático

Cifra Club Pro

Aproveite o Cifra Club com benefícios exclusivos e sem anúncios
7 dias grátis
Cifra Club Pro
Aproveite o Cifra Club com benefícios exclusivos e sem anúncios
7 dias grátis
OK