Cifra Club

May The Living Be Dead In Our Wake

Flogging Molly

Tab de baixo: Principal
 |   |    |   |    |   |    |   |    |   |    |   |    |   |    |   |    
|--------|--------|--------|--------|--------|--------|--------|--------|
|--------|--------|--------|--------|--------|--------|--------|--------|
|5-------|5-------|5---4-2-|--------|2-------|2-------|2---4-5-|0-------|
|----5---|----5---|--------|3-----3-|----2---|----2---|--------|----0---|

 |   |    |   |    |   |    |   |    |   |    |   |    |   |    |   |    
|--------|--------|--------|--------|--------|--------|--------|--------|
|--------|--------|--------|--------|--------|--------|--------|--------|
|5-------|5-------|5---4-2-|------2-|5---4-2-|0---0-2-|5-------|5-------|
|----5---|----5---|--------|3---3---|--------|--------|----5---|----5---|

 |   |    |   |    |   |    |   |    |   |    |   |    |   |    |   |    
|--------|--------|--------|--------|--------|--------|--------|--------|
|--------|--------|--------|5---5---|--------|--------|--------|--------|
|5-------|--------|--------|--------|--------|--------|--------|--------|
|--------|--------|--------|--------|7-------|--------|--------|5---5---|

 |   |    |   |    |   |    |   |    |   |    |   |    |   |    |   |    
|--------|--------|--------|--------|--------|--------|--------|--------|
|--------|--------|--------|5-------|--------|--------|--------|--------|
|5-------|--------|--------|--------|5-------|--------|5-------|--0-2-4-|
|--------|--------|--------|--------|--------|5-------|--------|--------|

 |   |    |   |    |   |    |   |    |   |    |   |    |   |    |   |    
|--------|--------|--------|--------|--------|--------|--------|--------|
|--------|--------|5-------|5-------|--------|--------|--------|--------|
|5-------|5-------|----5---|----5---|5-------|5-------|2-------|2-------|
|----5---|----5---|--------|--------|----5---|----5---|----2---|----2---|

 |   |    |   |    |   |    |   |    |   |    |   |    |   |    |   |    
|--------|--------|--------|--------|--------|--------|--------|--------|
|--------|--------|--------|--------|--------|--------|--------|----7---|
|5-------|5-------|5---5-2-|------2-|5---4-2-|------2-|5-------|5-------|
|----5---|----5---|--------|3---3---|--------|3---3---|----5---|--------|

 |   |    |   |    |   |    |   |    |   |    |   |    |   |    |   |    
|--------|--------|--------|--------|--------|--------|--------|--------|
|--------|--------|--------|--------|--------|--------|--------|--------|
|--------|--2-3-4-|5---5---|5---4-2-|0---0-0-|0---2-4-|5---5-5-|5---4-2-|
|3---3---|--------|--------|--------|--------|--------|--------|--------|

 |   |    |   |    |   |    |   |    |   |    |   |    |   |    |   |    
|--------|--------|--------|--------|--------|--------|--------|--------|
|--------|--------|--------|--------|--------|--------|----4---|----4---|
|--------|--2-3-5-|5---5---|5---5-4-|--------|5-7-----|2-------|2-------|
|3---3---|3-------|--------|--------|5---5---|----5---|--------|--------|

 |   |    |   |    |   |    |   |    |   |    |   |    |   |    |   |    
|--------|--------|--------|--------|--------|--------|--------|--------|
|--------|5-------|--------|--------|--------|--------|--------|--------|
|2/1-----|----2-4-|5---4-2-|0---2-4-|5-------|5-------|5---4-2-|------2-|
|----2---|--------|--------|--------|----5---|----5---|--------|3---3---|

 |   |    |   |    |   |    |   |    |   |    |   |    |   |    |   |    
|--------|--------|--------|--------|--------|--------|--------|--------|
|--------|--------|--------|--------|--------|--------|--------|5-------|
|5---5-4-|------4-|5-------|5-------|5-------|--------|--------|--------|
|--------|5---5---|----5---|----5---|--------|--------|--------|--------|

 |   |    |   |    |   |    |   |    |   |    |   |    |   |    |   |    
|--------|--------|--------|--------|--------|--------|--------|--------|
|--------|--------|--------|--------|--------|--------|--------|5-------|
|2-------|--------|--------|--------|5-------|--------|--------|--------|
|--------|--------|--------|5-------|--------|--------|--------|--------|

 |   |    |   |    |   |    |   |    |   |    |   |    |   |    |   |    
|--------|--------|--------|--------|--------|--------|--------|--------|
|--------|--------|--------|--------|----7---|----7---|5-------|5-------|
|5-------|--------|5---5---|------4-|5-------|5-------|----5---|----5---|
|--------|5---5---|--------|--5-7---|--------|--------|--------|--------|

 |   |    |   |    |   |    |   |    |   |    |   |    |   |    |   |    
|--------|--------|--------|--------|--------|--------|--------|--------|
|--------|--------|--------|--------|--------|--------|--------|--------|
|5-------|5-------|2-------|2-------|5-------|5-------|5---4-2-|------2-|
|----5---|----5---|----2---|----2---|----5---|----5---|--------|3-------|

 |   |    |   |    |   |    |   |    |   |    |   |    |   |    |   |    
|--------|--------|--------|--------|--------|--------|--------|--------|
|--------|--------|--------|--------|--------|--------|--------|--------|
|5---5-4-|--------|5-------|5-------|--------|--0-2-4-|5---5---|5-5-4-2-|
|--------|5---5-7-|----5---|----5---|3---3---|3-------|--------|--------|

 |   |    |   |    |   |    |   |    |   |    |   |    
|--------|--------|--------|--------|--------|--------|
|--------|--------|--------|--------|--------|--------|
|0---0---|0-0-2-4-|5---5---|5---4-2-|--------|--0-2-4-|
|--------|--------|--------|--------|3---3---|3-------|


exibições 142

0 comentários

mostrar mais comentários

Conseguiu tocar?

0 tocaram 0 ainda não

Grave um vídeo tocando May The Living Be Dead In Our Wake e mande pra gente!

00:00 / 00:00
outros vídeos desta música
repetir qualidade Automático
Outros vídeos desta música
00:00 / 00:00
Automático
OK