Cifra Club

The Likes Of You Again

Flogging Molly

Tab de baixo: Principal
Electric Bass

(Beginning Theme)  -Begin 8 measures after
the new tempo when the violin comes in-
G--------------/--------/----------/-----------/-------------------------------|
D--------------/--------/----------/-----------/------(Play 6 times)-----------|
A--5-5---------/5-5-0-0-/-5-5------/--5-4-5-5--/-------------------------------|
E--------3-3---/--------/------3-3-/-----------/-------------------------------|

G-----------/--------/---------/---------/----------/-----------/-----------/-------------|
D-----------/--------/---------/---------/----------/-----------/-4----4----/-4-----4-----|
A--2---2----/-2--2---/---------/---------/-2---2----/-2---2-----/----4---4--/----4-----4--|
E-----2--2--/---2--2-/-5-0-5-0-/-5-0-5-0-/----2---2-/----2---2--/-----------/-------------|
(Theme 2 ends)
G------------/-----------/------------------------/-------------------------|
D------------/-----------/-(beginning theme once)-/-------------------------|(Beginning theme 4x)
A------------/-----------/(only one 5 at the end)-/--(last time only one 5--|
E--3--2-3--4-/-5-0--5-0--/------------------------/---- at the end again)---|

G-------------------/------------------/---------/---------/----------------|
D-(repeat 2nd theme)/------------------/---------/--------------------------|-(Beginning theme
A-------------------/-5-5------5-5-4-4-/---------/---------/----------------|once,
E-------------------/------3-3---------/-3-2-3-4-/-5-0-5-0-/---only one 5)--|
(This whole line is optional to fill the empty sound without the accordion)
G---------------------------------/---/-----/---------------------/---/---------|
D---------------------------------/---/-----/---------------------/---/---------|
A-2-(hold over 2 measures 3 times)/-4-/-5-4-/-2-( over 3 measures-/-4-/-5-4-1---|
E---------------------------------/---/-----/---------------------/---/---------|

G-------------/--------------/-------------/-------------/-----------/------------/-------/-----|
D-------------/--------------/--2----2-----/-2----2--4---/-5---5-----/-5---5--6---/-------------|-(repeat
A---2----2----/-2---2--------/-----2----2--/----2--------/---5----5--/---5--------/-0--0--/--3--|x)
E-----2----2--/------2----2--/-------------/-------------/-----------/------------/-------------|

G------------------------/------------------------------------/--------------------|
D------------------------/---(Beginning theme 3 times)--------/ -------------------|
A-(slide up the down)----/------------------------------------/--------------------|
E------------------------/------------------------------------/--------------------|

G---------------------/-------------------/----------/---------/-----------/--------------|
D--(repeat 2nd theme)-/-------------------/----------/---------/-----------/--------------|
A---------------------/-5-5------5-5-4-4--/----------/---------/-5--5------/--5--5--4--4--|
E---------------------/------3-3----------/-3-2-3-4--/-5-0-5-0-/-------3-3-/--------------|

G----------/---------------/------------/--------/----------/-----------/-------//
D----------/---------------/------------/--------/----------/-----------/-------//
A----------/--00--0--00--0-/--5-5-------/5-5-0-0-/-5-5------/--5-4---5--/---5---//
E-3-2-3-4--/---------------/--------3-3-/--------/------3-3-/-----------/-------//
exibições 179

0 comentários

mostrar mais comentários

Conseguiu tocar?

0 tocaram 0 ainda não

Grave um vídeo tocando The Likes Of You Again e mande pra gente!

00:00 / 00:00
outros vídeos desta música
repetir qualidade Automático
Outros vídeos desta música
00:00 / 00:00
Automático
OK