Cifra Club

Aprenda

Whistles The Wind

Flogging Molly

Tab de baixo: Principal
Intro/Verse:
G|---------------------------------------------------|
D|---------------------------------------------------|
A|-----3-------3-------3-----------------------------|
E|-1-------1-------1-------0-1-2-3-------------------|   x2


Chorus:
G|---------------------------------------------------|
D|---------------------------------------------------|
A|-3-----------3-------3-----------------------------|
E|---------1-------1-------3-------------------------|   x2

Intro/Verse:
G|---------------------------------------------------|
D|---------------------------------------------------|
A|-----3-------3-------3-----------------------------|
E|-1-------1-------1-------0-1-2-3-------------------|   x2

Chorus:
G|---------------------------------------------------|
D|---------------------------------------------------|
A|-3-----------3-------3-----------------------------|
E|---------1-------1-------3-------------------------|   x2

Bridge:
G|---------------------------------------------------|
D|---------------------------------------------------|
A|---------3---------------3---------------2---------|
E|-1---------------1---------------1---------------3-|   x2





Composição de Bob Schmidt / Bridget Regan / Dave King / Dennis Casey / George Schwindt / Matt Hensley / Nathen Maxwell / Ted Hutt
479 exibições

0 comentários

Mostrar mais comentários

Conseguiu tocar?

0 Tocaram 0 Ainda não

Grave um vídeo tocando Whistles The Wind e mande pra gente!

00:00 / 00:00
outros vídeos desta música
repetir qualidade Automático
Outros vídeos desta música
00:00 / 00:00
Automático

Cifra Club Pro

Aproveite o Cifra Club com benefícios exclusivos e sem anúncios
7 dias grátis
Cifra Club Pro
Aproveite o Cifra Club com benefícios exclusivos e sem anúncios
7 dias grátis
OK